Oops, an error
Loading. Please wait.
We have Chord Pro version of The Line.
It's the closest thing you can get to the original song and it has interactive parts. Check out the tab »
×

The Line tab

version 1
version 1

Whole song

  • I've listened to the song and watched a guiter cov... Show more

Interactive

1,654 views 24 this week
2 commentsread comments
1 2 3 4 5
x 3
add to favorites
×
Save as Personal and add changes to this tab that will be seen only by you. Learn more ›
×
You can save this tab as Personal to edit and correct it or add notes. All changes will be seen only by you. Learn more »
launch autoscroll
font size
0
reset
how to read this tab
guitar tuner
edit
Autoscroll
slow
fast
+/-
esc
set tempo
stop
About this tab version
I've listened to the song and watched a guiter cover and I'm pretty sure this is right. I'm not 100% sure about the end of the solo though. Hope you enjoy :). Was this info helpful? Yes No
[Verse 1]
Yes or no?...
e|---------------------------------------------------------------------------|
B|---------------------------------------------------------------------------|
G|---------------------------------------------------------------------------|
D|---------------------------------------------------------------------------|
A|--------------------6--------------------------------------------6---------|
E|0------------------------------------------0-------------------------------|

[Instrumental]
e|-----------------------|------------------------|------------------------|------------------------|
B|-----------------------|------------------------|------------------------|------------------------|
G|8--8--8--11-11-11-11-11|-8--8--8--11-11-11-11-11|-8--8--8--11-11-11-11-11|-8--8--8--11-11-11-11-11| x2
D|9--9--9--11-11-11-11-11|-9--9--9--11-11-11-11-11|-9--9--9--11-11-11-11-11|-9--9--9--11-11-11-11-11|
A|7--7--7--7--7--7--7--7-|-7--7--7--7--7--7--7--7-|-6--6--6--6--6--6--6--6-|-6--6--6--6--6--6--6--6-|
E|-----------------------|------------------------|------------------------|------------------------|

[Verse 2]
Break my bones...
e|--------------------|-----------------------|----------------------|----------|
B|--------------------|-----------------------|----------------------|----------|
G|--------------------|-----------------------|----------------------|----------|
D|--------------------|-----------------------|----------------------|----------|
A|--------------------|6----------------------|----------------------|6---------|
E|0-------------------|-----------------------|0---------------------|----------|

[Instrumental]
e|-----------------------|------------------------|------------------------|------------------------|
B|-----------------------|------------------------|------------------------|------------------------|
G|8--8--8--11-11-11-11-11|-8--8--8--11-11-11-11-11|-8--8--8--11-11-11-11-11|-8--8--8--11-11-11-11-11| x2
D|9--9--9--11-11-11-11-11|-9--9--9--11-11-11-11-11|-9--9--9--11-11-11-11-11|-9--9--9--11-11-11-11-11|
A|7--7--7--7--7--7--7--7-|-7--7--7--7--7--7--7--7-|-6--6--6--6--6--6--6--6-|-6--6--6--6--6--6--6--6-|
E|-----------------------|------------------------|------------------------|------------------------|

[Bridge]
   C#m
Somewhere?
        E
Are you there?

[Chorus]
B                 E
The tears in your eyes
             B
Someday will dry
                 E
We fight for our lives
                          C#m
'Cause everything's on the line
     (start instrumental)
This time

[Instrumental]
e|-----------------------|------------------------|------------------------|------------------------|
B|-----------------------|------------------------|------------------------|------------------------|
G|8--8--8--11-11-11-11-11|-8--8--8--11-11-11-11-11|-8--8--8--11-11-11-11-11|-8--8--8--11-11-11-11-11|
D|9--9--9--11-11-11-11-11|-9--9--9--11-11-11-11-11|-9--9--9--11-11-11-11-11|-9--9--9--11-11-11-11-11|
A|7--7--7--7--7--7--7--7-|-7--7--7--7--7--7--7--7-|-6--6--6--6--6--6--6--6-|-6--6--6--6--6--6--6--6-|
E|-----------------------|------------------------|------------------------|------------------------|


[Verse 3]
Listen close...
e|---------------------|---------------------|--------------------------|-----|
B|---------------------|---------------------|--------------------------|-----|
G|---------------------|---------------------|--------------------------|-----|
D|---------------------|---------------------|--------------------------|-----|
A|7--------------------|6--------------------|7------------------7/9----|6----|
E|---------------------|---------------------|--------------------------|-----|

[Instrumental]
e|-----------------------|------------------------|------------------------|------------------------|
B|-----------------------|------------------------|------------------------|------------------------|
G|8--8--8--11-11-11-11-11|-8--8--8--11-11-11-11-11|-8--8--8--11-11-11-11-11|-8--8--8--11-11-11-11-11| x2
D|9--9--9--11-11-11-11-11|-9--9--9--11-11-11-11-11|-9--9--9--11-11-11-11-11|-9--9--9--11-11-11-11-11|
A|7--7--7--7--7--7--7--7-|-7--7--7--7--7--7--7--7-|-6--6--6--6--6--6--6--6-|-6--6--6--6--6--6--6--6-|
E|-----------------------|------------------------|------------------------|------------------------|

[Bridge]
   C#m
Somewhere?
        E
Are you there?

[Chorus]
B                 E
The tears in your eyes
             B
Someday will dry
                 E
We fight for our lives
                          C#m
'Cause everything's on the line
     (start solo)
This time

[Solo]
(Guitar 1)
e|-----------------------------------------------6-6-6-7-7-7----------11-11--|
B|-----------------------------------------------7-7-7-7-7-7-12-12-12-12-12--|
G|--------------6--------------------------------8-8-8-8-8-8-13-13-13-13-13--|
D|6--8-9-6--8-9----8-9--6--8-9-8---6--8-9-6--8-9-------------11-11-11--------|
A|-------------------------------9-------------------------------------------|
E|---------------------------------------------------------------------------|

e|11-14-14-14-14-------------------------------------------------------------|
B|12-16-16-16-16-------------------------------------------------------------|
G|13-16-16-16-16-------------------------------------------------------------|
D|---------------------------------------------------------------------------|
A|---------------------------------------------------------------------------|
E|---------------------------------------------------------------------------|

(Guitar 2)
e|-----------------------|------------------------|------------------------|------------------------|
B|-----------------------|------------------------|------------------------|------------------------|
G|8--8--8--11-11-11-11-11|-8--8--8--11-11-11-11-11|-8--8--8--11-11-11-11-11|-8--8--8--11-11-11-11-11| x2
D|9--9--9--11-11-11-11-11|-9--9--9--11-11-11-11-11|-9--9--9--11-11-11-11-11|-9--9--9--11-11-11-11-11|
A|7--7--7--7--7--7--7--7-|-7--7--7--7--7--7--7--7-|-6--6--6--6--6--6--6--6-|-6--6--6--6--6--6--6--6-|
E|-----------------------|------------------------|------------------------|------------------------|

[Bridge]
       C#m
Are you there?
        E
Are you there?

[Chorus]
B                 E
The tears in your eyes
             B
Someday will dry
                 E
We fight for our lives
                          C#m
'Cause everything's on the line
     E
This time

B                 E
The tears in your eyes
             B
Someday will dry
                 E
We fight for our lives
                          C#m
'Cause everything's on the line
 
[Outro]
Yes or no?...
e|--------------------|-----------------------|----------------------|----------|
B|--------------------|-----------------------|----------------------|----------|
G|--------------------|-----------------------|----------------------|----------|
D|--------------------|-----------------------|----------------------|----------|
A|--------------------|6----------------------|----------------------|----------|
E|0-------------------|-----------------------|0---------------------|4---------|



************************************

| /   Slide up

************************************

            
            
Suggest correction
Creating personal tab
Creating personal tab
You can edit any tab online and save it as your Personal.

You can edit, replace or remove any tab part or add personal notes – all changes will be seen only by you.

Personal tabs can be accessed anytime from any device, even offline.
Learn more »
Give kudos to tab author, rate the tab!
1 2 3 4 5
comments
print report bad tab
2 comments total.
0 reply
jmeyer100 87 Sep 08, 2017 12:47 PM

Sounds right to me. Good job!

0 reply
darcyramage 135 Sep 12, 2017 07:55 PM

Thanks jmeyer100 :)

guest
You may want to rate the tab now too:
select rating
Wanna post a correction for this tab? Suggest correction