Oops, an error
Loading. Please wait.

The Neverending Sigh tab

version 2
version 2

Whole song

4,951 views 3 this week
no commentswrite comment
1 2 3 4 5
x 20
add to favorites
×
Save as Personal and add changes to this tab that will be seen only by you. Learn more ›
×
You can save this tab as Personal to edit and correct it or add notes. All changes will be seen only by you. Learn more »
launch autoscroll
font size
0
reset
how to read this tab
guitar tuner
edit
Autoscroll
slow
fast
+/-
esc
set tempo
stop
Author
The Neverending Sigh - Foo Fighters
Tabbed by: GrohlDFW.com
E-mail: generatorlive@gmail.com

*Any edits or suggestions are welcome*

Guitar 1 (Dave):  E A D G B E
Guitar 2 (Chris): E A D G B E
Guitar 3 (Pat):   E A D G B E

[Intro]
Guitar 2 (with Rotary and Delay)
e|---------------------------------------------------------------------------|
B|---------------------------------------------------------------------------|
G|--------10~---------9~--10~-----------10~--9~-10~-----------12--9-10-9~----|
D|----------------------------10~-------------------10~----------------------|
A|---10~----------10~----------------10~------------------10~----------------|
E|---------------------------------------------------------------------------|

Guitar 1 (0:25)
e|----------------------------------------------------------------|
B|----------------------------------------------------------------|
G|o---------------------------0----------------------------------o| 
D|o-----------------------2~-------------------------2h3p2p0-----o| x2
A|-----------------------------------------------------------1p0--|
E|--3h6-6-6-6p3-3-3-3p0-0-------3h6-6-6-6p3-3-3-3(p0)-------------|
                                                   ^ first time only

[RIFF A]
Guitar 1 & 3 (Guitar 2 play twice, then play next part)
e|----------------------------------------------------------------|
B|----------------------------------------------------------------|
G|o---------------------------0----------------------------------o| 
D|o-5/8-8-8-8\5-5-5-5-2-2--2~---5/8-8-8-8\5-5-5-5\---2h3p2p0-----o| x4
A|--5/8-8-8-8\5-5-5-5-2-2-------5/8-8-8-8\5-5-5-5\-----------1p0--|
E|--3/6-6-6-6\3-3-3-3-0-0-------3/6-6-6-6\3-3-3-3\----------------|

Guitar 2 
e|----------------------------------------------------------------|
B|--8/11111111\8-8-8-8\5-5--5---8/11111111\8-8-8-8----------------|
G|--7/10101010\7-7-7-7\4-4--4---7/10101010\7-7-7-7--7h8p7--------o|
D|--5/8-8-8-8-\5-5-5-5\2-2--2---5/8-8-8-8-\5-5-5-5--------10p8p7-o| x2
A|----------------------------------------------------------------|
E|----------------------------------------------------------------|

[VERSE A]
Guitar 1 & 3                 1. 2. 3.   4.
    G       Bb      C         C7
e|--------------------------|----------|--------------|
B|--------------------------|-5-5-5-5--|--------------|
G|--------------------------|-3-3-3-3-o|-------------o|
D|------------------5-5-5-5-|-5-5-5-5-o|-2h3p2p0-----o| x2
A|--5-5-5-5-8-8-8-8-3-3-3-3-|-3-3-3-3--|---------1p0--|
E|--3-3-3-3-6-6-6-6---------|----------|--------------|
 PM * * * * * * * * * * * * 

Guitar 2                     1. 2. 3.   4.
e|--------------------------|-3-3-3-3--|--------------|
B|--------------------------|-X-X-X-X--|--------------|
G|--------------------------|-3-3-3-3-o|-------------o|
D|--------------------------|-2-2-2-2-o|-2h3p2p0-----o| x2
A|--------------------------|-3-3-3-3--|---------1p0--|
E|--------------------------|----------|--------------|

[PRE-CHORUS A]
Guitar 1 & 3
    C                                         G       Bb      C           
e|--0-0-0-0-0-0-0-0-0-0-0-0-0--------------|----------------------------|----------|-------------|
B|--X-X-X-X-X-X-X-X-X-X-X-X-X--------------|----------------------------|----------|-------------|
G|--5-5-5-5-5-5-5-5-5-5-5-5-5--------------|o---------------------------|---------o|-------------|
D|--5-5-5-5-5-5-5-5-5-5-5-5-5--2h3p2p0-----|o-----------------5-5-(5-5)-|---------o|-2h3p2p0-----|
A|--3-3-3-3-3-3-3-3-3-3-3-3-3----------1p0-|--5-5-5-5-8-8-8-8-3-3-(3-3)-|-7-7-7-7--|---------1p0-|
E|-----------------------------------------|--3-3-3-3-6-6-6-6-----------|----------|-------------|
                                                                    ^ first time only
    C                D D+ Bb
e|--0-0-0-0-0-0-0-0-0----------|
B|--X-X-X-X-X-X-X-X-X----------|
G|--5-5-5-5-5-5-5-5-5-7--------|
D|--5-5-5-5-5-5-5-5-5-7-8-8~-\-|
A|--3-3-3-3-3-3-3-3-3-5-5-8~-\-|
E|------------------------6~-\-|

Guitar 2
    C
e|-----------------------------------------|----------------------------|----------|-------------|
B|--5-5-5h6p5-5-5-5h6p5-5-5-5--------------|----------------------------|----------|-------------|
G|--5-5-5-5-5-5-5-5-5-5-5-5-5--------------|o---------------------------|---------o|-------------|
D|--5-5-5-5-5-5-5-5-5-5-5-5-5--2h3p2p0-----|o---------------------------|---------o|-2h3p2p0-----|
A|--3-3-3-3-3-3-3-3-3-3-3-3-3----------1p0-|------------------3-3-(3-3)-|-7-7-7-7--|---------1p0-|
E|-----------------------------------------|--3-3-3-3-6-6-6-6-----------|----------|-------------|
                                                                    ^ first time only
    C                D D+ Bb
e|-----------------------------|
B|--5-5-5h6p5-5-5h6p5----------|
G|--5-5-5-5-5-5-5-5-5-7--------|
D|--5-5-5-5-5-5-5-5-5-7-8-8~-\-|
A|--3-3-3-3-3-3-3-3-3-5-5-8~-\-|
E|------------------------6~-\-|

[CHORUS A]
Guitar 1 & 3                           1. & 3.          2.               4.
    G          Eb          Bb           F               C          Bb    C
e|------------------------------------|--------------|----------------|-------|
B|------------------------------------|--------------|----------------|-------|
G|o------------8-8--------------------|-------------o|---------------o|-------|
D|o-5-5--------8-8---------8-8--------|-3-3---------o|--10---------8-o|--10\--|
A|--5-5--------6-6---------8-8--------|-3-3----------|--10---------8--|--10\--|
E|--3-3--------------------6-6--------|-1-1----------|--8----8-6-8-6--|--8\---|

Guitar 2                                1. & 3.        2.               4.
e|------------------------------------|--------------|----------------|-------|
B|------------------------------------|--------------|----------------|-------|
G|o------------8-8--------------------|-------------o|---------------o|-------|
D|o-5-5--------8-8---------8-8--------|-3-3---------o|--10---------8-o|--10\--|
A|--5-5-----5--6-6-8/10\8--8-8------8-|-3-3-3h5p3----|--10---------8--|--10\--|
E|--3-3-6/8----------------6-6-8/10---|-1-1-------6--|--8----8-6-8-6--|--8\---|

[BREAK]
Guitar 1
e|------------------------0~---|
B|------------------------0~---|
G|o-----------------------0~---| 
D|o-----------------------2~---|  Then same as the last two times of RIFF A for all guitars
A|-----------------------------|
E|--3h6-6-6-6p3-3-3-3p0-0------|

[VERSE B] (same as [VERSE A], except no repeat)
Guitar 1 & 3                 1. 2. 3.   4.
    G       Bb      C         C7
e|--------------------------|----------|--------------|
B|--------------------------|-5-5-5-5--|--------------|
G|--------------------------|-3-3-3-3-o|-------------o|
D|------------------5-5-5-5-|-5-5-5-5-o|-2h3p2p0-----o|
A|--5-5-5-5-8-8-8-8-3-3-3-3-|-3-3-3-3--|---------1p0--|
E|--3-3-3-3-6-6-6-6---------|----------|--------------|
 PM * * * * * * * * * * * * 

Guitar 2                     1. 2. 3.   4.
e|--------------------------|-3-3-3-3--|--------------|
B|--------------------------|-X-X-X-X--|--------------|
G|--------------------------|-3-3-3-3-o|-------------o|
D|--------------------------|-2-2-2-2-o|-2h3p2p0-----o|
A|--------------------------|-3-3-3-3--|---------1p0--|
E|--------------------------|----------|--------------|
                                                   
[PRE-CHORUS B]
Guitar 1 & 3
    G       Bb      C  
e|----------------------------|----------|-------------|
B|----------------------------|----------|-------------|
G|o---------------------------|---------o|-------------|
D|o-----------------5-5-(5-5)-|---------o|-2h3p2p0-----|
A|--5-5-5-5-8-8-8-8-3-3-(3-3)-|-7-7-7-7--|---------1p0-|
E|--3-3-3-3-6-6-6-6-----------|----------|-------------|
                                                                    
    C                D D+ Bb
e|--0-0-0-0-0-0-0-0-0----------|
B|--X-X-X-X-X-X-X-X-X----------|
G|--5-5-5-5-5-5-5-5-5-7--------|
D|--5-5-5-5-5-5-5-5-5-7-8-8~-\-|
A|--3-3-3-3-3-3-3-3-3-5-5-8~-\-|
E|------------------------6~-\-|

Guitar 2
e|----------------------------|----------|-------------|
B|----------------------------|----------|-------------|
G|o---------------------------|---------o|-------------|
D|o---------------------------|---------o|-2h3p2p0-----|
A|------------------3-3-(3-3)-|-7-7-7-7--|---------1p0-|
E|--3-3-3-3-6-6-6-6-----------|----------|-------------|
                                                                    
    C                D D+ Bb
e|-----------------------------|
B|--5-5-5h6p5-5-5h6p5----------|
G|--5-5-5-5-5-5-5-5-5-7--------|
D|--5-5-5-5-5-5-5-5-5-7-8-8~-\-|
A|--3-3-3-3-3-3-3-3-3-5-5-8~-\-|
E|------------------------6~-\-|

[CHORUS B]
Guitar 1 & 3                            1. & 3.          2. 
    G          Eb          Bb           F               C          Bb
e|------------------------------------|--------------|----------------|
B|------------------------------------|--------------|----------------|
G|o------------8-8--------------------|-------------o|---------------o|
D|o-5-5--------8-8---------8-8--------|-3-3---------o|--10---------8-o|
A|--5-5--------6-6---------8-8--------|-3-3----------|--10---------8--|
E|--3-3--------------------6-6--------|-1-1----------|--8----8-6-8-6--|

Guitar 2                                1. & 3.        2.              
e|------------------------------------|--------------|----------------|
B|------------------------------------|--------------|----------------|
G|o------------8-8--------------------|-------------o|---------------o|
D|o-5-5--------8-8---------8-8--------|-3-3---------o|--10---------8-o|
A|--5-5-----5--6-6-8/10\8--8-8------8-|-3-3-3h5p3----|--10---------8--|
E|--3-3-6/8----------------6-6-8/10---|-1-1-------6--|--8----8-6-8-6--|

[Post-Chorus]
Guitar 1
   Eb              C7              Eb              D     Db
e|------------------------------------------------------------|
B|-----------------5-5-5-5-5-5-5-5----------------------------|
G|-8-8-8-8-8-8-8-8-3-3-3-3-3-3-3-3-8-8-8-8-8-8-8-8-7-7---6--\-|
D|-8-8-8-8-8-8-8-8-5-5-5-5-5-5-5-5-8-8-8-8-8-8-8-8-7-7---6--\-|
A|-6-6-6-6-6-6-6-6-3-3-3-3-3-3-3-3-6-6-6-6-6-6-6-6-5-5---4--\-|
E|------------------------------------------------------------|

Guitar 2
e|------------------------------------------------------------|
B|-------6~--------------3~--------------6~-------------------|
G|-----8~--------------3~--------------8~----------7-7---6--\-|
D|---8~--------------2~--------------8~------------7-7---6--\-|
A|-6~--------------3~--------------6~--------------5-5---4--\-|
E|------------------------------------------------------------|

Guitar 3
e|------------------------------------------------------------------------------------------|
B|------------------------------------------------------------------------------------------|
G|-12-12-12-12-12-12-12-12-12-12-12-12-12-12-12-12-12-12-12-12-12-12-12-12-11-11-11--10~-\--|
D|---------------------------------------------------------------------------------------\--|
A|-10-10-10-10-10-10-10-10-10-10-10-10-10-10-10-10-10-10-10-10-10-10-10-10-9--9--9---8~--\--|
E|------------------------------------------------------------------------------------------|

[SOLO A]
Guitar 1   
    G       Eb      C
e|---------------------------------------------|
B|---------------------------------------------|
G|----------8-8-------------------------------o|
D|--5-5-----8-8-----10-10----10---10-10-10-10-o| x4
A|--5-5-----6-6-----10-10----10---10-10-10-10--|
E|--3-3-------------8--8-----8----8--8--8--8---|

Guitar 2
    G          Eb          C                                          
e|--------------------------------------------------|
B|--------------------------------------------------|
G|o------------8-8---------5-5----------------------|
D|o-5-5--------8-8---------5-5----------------------| x4
A|--5-5-----5--6-6-8/10\8--3-3-5/7\5---5p3-5/7p5----|
E|--3-3-6/8--------------------------------------8--|

Guitar 3
e|---------------------------------------------------------------------------|
B|---------------------------------------------------------------------------|
G|-12-12-12-12---------------------------------------------------------------|
D|---------------------------------------------------------------------------|
A|-10-10-10-10---------------------------------------------------------------|
E|---------------------------------------------------------------------------|
   ^ this is played through the whole SOLO A section

[CHORUS C]
Guitar 1, 2 & 3                    
                                   1. & 3.         2.  
    G          Eb          Bb        F             C          Bb           
e|-------------------------------|--------------|----------------|
B|-------------------------------|--------------|----------------|
G|o------------8-8-(8-8)---------|-------------o|---------------o|
D|o-5-5-(5-5)--8-8-(8-8)---8-8-8-|-8-3-3-3-3---o|--10---------8-o|
A|--5-5-(5-5)--6-6-(6-6)---8-8-8-|-8-3-3-3-3----|--10---------8--|
E|--3-3-(3-3)--------------6-6-6-|-6-1-1-1-1----|--8----8-6-8-6--|
          ^          ^
        (third time only)        

[POST-CHORUS] x1
[SOLO A] x1

[SOLO B] (Over SOLO A for Guitars 1 and 2)
e|---------------15-15-15~--13----13-13~---13-13--------------------------------------------|
B|------11-13b-----------------15----------------15-13-15-15-13----13-13--------------------|
G|--/12---------------------------------------------------------15-------15-12-15-15-12-----|
D|--------------------------------------------------------------------------------------15--|
A|------------------------------------------------------------------------------------------|
E|------------------------------------------------------------------------------------------|

e|------------------------------------------------------------------------------------------------|
B|------------------------------------------------------------------------------------------------|
G|-12-----------------------------------------------------------15p12-15b--15p12-15b--15p12-15b---|
D|----15-12-15-12----12----------------12-15-12-15/17-17-17~--------------------------------------|
A|----------------15----15-13---------------------------------------------------------------------|
E|----------------------------15~-----------------------------------------------------------------|

Fade out...

************************************

| ~   Vibrato
| h   Hammer-on
| p   Pull-off
| /   Slide up
| \   Slide down
| PM  Palm mute
| b   Bend 

************************************

            
            
Suggest correction
Creating personal tab
Creating personal tab
You can edit any tab online and save it as your Personal.

You can edit, replace or remove any tab part or add personal notes – all changes will be seen only by you.

Personal tabs can be accessed anytime from any device, even offline.
Learn more »
comments
print report bad tab
guest
You may want to rate the tab now too:
select rating
Wanna post a correction for this tab? Suggest correction