Oops, an error
Loading. Please wait.

Virginia Moon tab

version 2
version 2

Whole song

Interactive

41,616 views 69 this week
8 commentsread comments
1 2 3 4 5
x 28
add to favorites
×
Save as Personal and add changes to this tab that will be seen only by you. Learn more ›
×
You can save this tab as Personal to edit and correct it or add notes. All changes will be seen only by you. Learn more »
launch autoscroll
font size
0
reset
how to read this tab
guitar tuner
edit
Autoscroll
slow
fast
+/-
esc
set tempo
stop
Author
Tuning: eBGDAE

[Verse]
e|-------------------------------------------|
B|------------------------6------------------|
G|--5--5--5--3-----5-3------3----3--4--3--3--|
D|--6--5--4--3-----3----------3--2--2--2--2--|
A|--4--7--6--5--5------5---------4--4--4--x--|
E|----------------------------------------2--|

[Chorus]
e|--------|
B|--------|
G|--3--3--|
D|--4--2--|     (switch between these two chords)
A|--2--x--|
E|-----2--|

e|--------------------------------------------|
B|--------------------------------------------|
G|--------------------0--------4--4--4--3--3--|
D|--------2--------2-----2-----4--4--5--4--4--|
A|-----2-----2--2-----------2--2--6--5--4--2--|
E|--0-----------------------------------------|

("In the morning...")
under this the electric rhythm guitar plays
e|--7-------7-----------------6--11--10--9---6--|
B|--9-------8-----------------7--12--12--11--7--|
G|--9-------9-----------------8--11--12--10--8--|
D|----------------------------------------------|
A|----------------------------------------------|
E|----------------------------------------------|

[Lead Break]
e|-------------------------------------8--9--11--9--8---------------------------|
B|------------------------------------6----------------11--9--11b12b11-------9--|
G|------------5--5--1--3--5--5b6--5--6----------------------------------9s10----|
D|------3--6--------------------------------------------------------------------|
A|-3-4--------------------------------------------------------------------------|
E|------------------------------------------------------------------------------|

e|----------------------------------------------------------------2--|
B|-11--9--11--9--11b12--11--9--11b12--11-----------------------2-----|
G|----------------------------------------------------------3--------|
D|----------------------------------------------------3--4-----------|
A|----------------------------------------------1--4-----------------|
E|----------------------------------------1--2-----------------------|

[Electric rhythm guitar plays this under the lead break]
e|--8---8---8---6--6--7--2--|
B|--9---8---7---6--5--5--2--|
G|--10--9---8---7--6--6--3--|
D|--11--10--10-----------4--|
A|--------------------------|
E|--------------------------|

[Electric rhythm guitar plays this under the subsequent chorus]
e|--6--2--|
B|--7--2--|
G|--8--3--|    (Switch between these two chords)
D|--9--4--|
A|--------|
E|--------|

[Acoustic rhythm guitar finishes with this chord]
e|--2--|
B|--2--|
G|--3--|
D|--4--|
A|--2--|
E|-----|


************************************

| x  Dead note
| b  Bend

************************************

            
            
Suggest correction
Creating personal tab
Creating personal tab
You can edit any tab online and save it as your Personal.

You can edit, replace or remove any tab part or add personal notes – all changes will be seen only by you.

Personal tabs can be accessed anytime from any device, even offline.
Learn more »
comments
print report bad tab
8 comments total. Showing first comments. show 1 bad comment
0 reply
Soul Power 122 Dec 28, 2006 10:53 AM

Great tab, great song.

0 reply
Sha0 10 May 08, 2007 04:39 AM

Excellent tab man!! Good work :D

guest
You may want to rate the tab now too:
select rating
Wanna post a correction for this tab? Suggest correction