Oops, an error
Loading. Please wait.

Autocrat bass

version 1
version 1

Whole song

113 views 1 this week
no commentswrite comment
1 2 3 4 5
3 more votes to show rating
add to favorites
×
Save as Personal and add changes to this tab that will be seen only by you. Learn more ›
×
You can save this tab as Personal to edit and correct it or add notes. All changes will be seen only by you. Learn more »
launch autoscroll
font size
0
reset
guitar tuner
edit
Autoscroll
slow
fast
+/-
esc
set tempo
stop
Author
Difficulty
-------------------------------------------------------------------------------
                             Autocrat - For Against
-------------------------------------------------------------------------------
Tabbed by: Brian Gray
Bassist: Jeffrey Runnings

Tuning: Standard

Use alternate picking for the verses.

Play with palm mutes to get the proper percussive tone!

Riff 1
G|---------------------------|
D|22----222----222----22-x5-0|
A|---------------------------|
E|---------------------------|

Riff 2
G|55----555----555----55-xxx-|
D|---------------------------|
A|---------------------------|
E|---------------------------|

Riff 3
(No palm mutes. No Alternate Picking)
G|----------------------------------------------|
D|7--7--7--7--5--5--5--5--2--2--2--2--3--3--3--5|
A|----------------------------------------------|
E|----------------------------------------------| x 3

Then

G|----------------------------------------------|
D|7--7--7--7--5--5--5--5--2--2--2--2--3--5--7--9|
A|----------------------------------------------|
E|----------------------------------------------|

Riff 4
G|----------------------------|
D|22----222----222-x-x-x-x-x-x|
A|----------------------------|
E|----------------------------|

Outro
(No palm mutes. Down-strums for the fretted notes, alternate strumming for the muted notes)
G|----------------------------|
D|----------------------------|
A|77----777----777-x-x-x-x-x-x|
E|----------------------------| x 4

Then

G|----------------9--7---|
D|----------------------9|
A|77----777----7---------|
E|-----------------------| x 4

End on

A|77|

Bass Enters 0:18
Riff 1 x 5
Riff 2 x 2
Riff 1 x 2
Riff 2 x 2
Riff 3 x 1
Riff 1 x 2
Riff 2 x 2
Riff 1 x 2
Riff 2 x 2
Riff 3 x 1
Riff 4 x 4
Riff 1 x 4
Riff 2 x 2
Riff 1 x 2
Riff 2 x 2
Riff 3 x 1
Outro  x 1


Notes: I played the main riff on the 2nd string, 2nd fret to get that added twang but 
you can just as easily play this song on the 3rd string, 7th fret, and adjust accordingly.

I'm not entirely sure how he got that metallic, clanging sound but the palm muted notes 
and the dead notes have a lot to do with getting the right sound.

            
            
Suggest correction
Creating personal tab
Creating personal tab
You can edit any tab online and save it as your Personal.

You can edit, replace or remove any tab part or add personal notes – all changes will be seen only by you.

Personal tabs can be accessed anytime from any device, even offline.
Learn more »
Give kudos to tab author, rate the tab!
1 2 3 4 5
comments
print report bad tab
guest
You may want to rate the tab now too:
select rating
Wanna post a correction for this tab? Suggest correction