Oops, an error
Loading. Please wait.

Blue Morning Blue Day bass

version 1
version 1

Whole song

Interactive

418 views 9 this week
no commentswrite comment
1 2 3 4 5
2 more votes to show rating
add to favorites
×
Save as Personal and add changes to this tab that will be seen only by you. Learn more ›
×
You can save this tab as Personal to edit and correct it or add notes. All changes will be seen only by you. Learn more »
launch autoscroll
font size
0
reset
guitar tuner
backing track
0:00
0:00
edit
Autoscroll
slow
fast
+/-
esc
set tempo
stop
[Intro: enter at :06]

G|---|-----------------|-----------------|-----------------|-----------------|
D|---|---5---3---2---0-|-----------------|-----------------|-4-3-4-----3-4-5-|
A|---|-----------------|-2-1-2-----1-2-4-|-5-4-5-----4-5---|-----------------|
E|-3-|-----------------|-----------------|-----------------|-----------------|

G|-----------------|
D|---5---3---2---0-|
A|-----------------|
E|-----------------|


[Verse]

G|-----------------|-----------------|-----------------|-----------------|
D|-----------------|-----------------|-----------------|-----------------|
A|---------1-------|-2-----5-----2---|---------4-------|-------2---------|
E|-2---------------|-----------------|-5---------------|-3-----------3---|

G|-----------------|-----------------|-----------------|-----------------|  x2
D|-----------------|-----------------|-----------------|-----------------|
A|---------1-------|-2-----5-----2---|---------4-------|-------2-----5---|
E|-2---------------|-----------------|-5---------------|-3---------------|

G|-----------------|-----------------|-----------------|-----------------|
D|-----------------|-----------------|-----------------|-----------------|
A|---------1-------|-2-----5-----2---|---------4-------|-----------------|
E|-2---------------|-----------------|-5---------------|-3-----------2---|


[Chorus]

G|-----------------|-----------------|-----------------|-----------------|  x2
D|-----------------|-----------------|-----------------|-----------------|
A|-2---2---2-2-2---|-----------------|-----------------|---1---2---------|
E|---------------2-|-3---3---3-3-3---|-2---2---2-2-----|-2---------------|


[Pre-verse]

G|-----------------|-----------------|-----------------|-----------------|
D|-----------------|-----------------|-4-3-4-----3-4-5-|-(5)-------------|
A|-2-1-2-----1-2-4-|-5-4-5-----4-5---|-----------------|-----------------|
E|-----------------|-----------------|-----------------|-----------------|


[Verse]

G|-----------------|-----------------|-----------------|-----------------|
D|-----------------|-----------------|-----------------|-----------------|
A|---------1-------|-2-----5-----2---|---------4-------|-------2---------|
E|-2---------------|-----------------|-5---------------|-3-----------3---|

G|-----------------|-----------------|-----------------|-----------------|
D|-----------------|-----------------|-----------------|-----------------|
A|---------1-------|-2-----5-----2---|---------4-------|-------2-----5---|
E|-2---------------|-----------------|-5---------------|-3---------------|

G|-----------------|-----------------|-----------------|-----------------|
D|-----------------|-----------------|-----------------|-----------------|
A|---------1--1--1-|-2-----5-----2---|---------4-------|-------2-----5---|
E|-2--2--2---------|-----------------|-5---------------|-3---------------|

G|-----------------|-----------------|-----------------|-----------------|
D|-----------------|-----------------|-----------------|-----------------|
A|---------1-------|-2-----5-----2---|---------4-------|-----------------|
E|-2---------------|-----------------|-5---------------|-3-----------2---|


[Chorus]

G|-----------------|-----------------|-----------------|-----------------|  x2
D|-----------------|-----------------|---------4---4---|-4---------------|
A|-2---2---2-2-2---|-----------------|-----------------|---1---2---------|
E|---------------2-|-3---3---3-3-3---|-2---2--2--------|-----------------|


[Solo]

G|-----------------|-----------------|-----------------|-----------------|
D|-----------------|-----------------|-----------------|-----------------|
A|-----------------|-----------------|-4-3-4-----3-4-5-|-(5)---3---2---0-|
E|-2-1-2-----1-2-4-|-5-4-5-----4-5---|-----------------|-----------------|

G|-----------------|-----------------|-----------------|-----------------|
D|-----------------|-----------------|-----------------|-------4---5-----|
A|-----------------|-----------------|-4-3-4-----3-4-5-|-(5)-------------|
E|-2-1-2-----1-2-4-|-5-4-5-----4-5---|-----------------|-----------------|


[Chorus]

G|-----------------|-----------------|-----------------|-----------------|
D|-----------------|-----------------|---------4---4---|-4---------------|
A|-2---2---2-2-2---|-----------------|-----------------|---1---2-------1-|
E|---------------2-|-3---3---3-3-3-0-|-2---2--2--------|-----------------|

G|-----------------|-----------------|-----------------|-----------------|
D|-----------------|-----------------|-----------------|-----------------|
A|-2---2---2---2---|-----------------|-----------------|---1---2-------1-|
E|---------------2-|-3---3---3-3-3-0-|-2---2---2---2---|-2---------------|

G|-----------------|-----------------|-----------------|-----------------|
D|-----------------|-----------------|-----------------|-----------------|
A|-2---2---2---2---|---------------1-|-2---2---2-2-2---|---------------1-|
E|---------------2-|-3---3---3-2-3---|---------------2-|-3---3---3-2-3---|

G|-----------------|-----------------|-----------------|-----------------|
D|-----------------|-----------------|-----------------|-------------5-4-|
A|-2---2---2---2---|---------------1-|-2-2-2-2-2-2-2-2-|-----------------|
E|---------------2-|-3---3---3-2-3---|-----------------|-3-3-3-3-3-3-----|


[Outro]

G|-----------------|-----------------|-----------------|-----------------|
D|-----------------|-----------------|-4-3-4-----3-4-5-|---5---3---2---0-|
A|-2-1-2-----1-2-4-|-5-4-5-----4-5---|-----------------|-----------------|
E|-----------------|-----------------|-----------------|-----------------|

G|-----------------|-----------------|-----------------|---------------7/|
D|-----------------|-----------------|-4-3-4-----3-4-5-|-(5)-------------|
A|-2-1-2-----1-2-4-|-5-4-5-----4-5---|-----------------|-----------------|
E|-----------------|-----------------|-----------------|-----------------|

G|-12-------------\|
D|-----------------|
A|-----------------|
E|-----------------|


Hope you enjoy the tab and find it accurate.
Let me know if you have any corrections.


************************************

| (n) Ghost note
| /   Slide up
| \   Slide down

************************************

            
            
Suggest correction
Creating personal tab
Creating personal tab
You can edit any tab online and save it as your Personal.

You can edit, replace or remove any tab part or add personal notes – all changes will be seen only by you.

Personal tabs can be accessed anytime from any device, even offline.
Learn more »
Give kudos to tab author, rate the tab!
1 2 3 4 5
comments
print report bad tab
guest
You may want to rate the tab now too:
select rating
Wanna post a correction for this tab? Suggest correction