Oops, an error
Loading. Please wait.

Urgent bass

version 2
version 2

Whole song

Interactive

544 views 12 this week
no commentswrite comment
1 2 3 4 5
2 more votes to show rating
add to favorites
×
Save as Personal and add changes to this tab that will be seen only by you. Learn more ›
×
You can save this tab as Personal to edit and correct it or add notes. All changes will be seen only by you. Learn more »
launch autoscroll
font size
0
reset
guitar tuner
backing track
0:00
0:00
edit
Autoscroll
slow
fast
+/-
esc
set tempo
stop
Author
-------------------------------------------------------------------------------
                             Urgent - Foreigner
-------------------------------------------------------------------------------
Tabbed by: istarii
E-mail: thompson.luke@mail.com

Tuning: Standard

  Intro
G|-------------------------|-------------------------|
D|-------------------------|-------------------------|
A|-------------------------|----------------------7\-|
E|-------------------------|-------------------------|

G|-------------------------|-------------------------|
D|-------------------------|----10----10----10----10-|
A|----7-----7-----7-----7--|-------------------------|
E|-0----0-0----0----0-0---/|-8----8-8----8----8-8---\|

G|-------------------------|-------------------------|
D|----7-----7-----7-----7--|-------------------------|
A|-------------------------|----7-----7-----7-----7--|
E|-5----5-5----5----5-5---/|-0----0-0----0----0-0---/|


  Verse 1
G|-------------------------|-------------------------|
D|-------------------------|----10----10----10----10-|
A|----7-----7-----7-----7--|-------------------------|
E|-0----0-0----0----0-0---/|-8----8-8----8----8-8---\|

G|-------------------------|-------------------------|
D|----7-----7-----7-----7--|-------------------------| x3
A|-------------------------|----7-----7-----7-----7--|
E|-5----5-5----5----5-5---/|-0----0-0----0----0-0----|


  Chorus 1
G|---------------------------------|---------------------------------|
D|---------------------------------|---------------------------------| x2
A|-7-7-7-7-5-5-5-5---------3-3-3-3-|-7-7-7-7-5-5-5-5---------3-3-3-3-|
E|-----------------5-5-5-5---------|-----------------5-5-5-5---------|

  Post Chorus 1
G|-------------------------|-------------------------|
D|-------------------------|-------------------------|
A|-7\-------------------7\-|----7-----7-----7-----7--|
E|-------------------------|-0----0-0----0----0-0----|

 Verse 2
G|-------------------------|-------------------------|
D|-------------------------|----10----10----10----10-|
A|----7-----7-----7-----7--|-------------------------|
E|-0----0-0----0----0-0---/|-8----8-8----8----8-8---\|

G|-------------------------|-------------------------|
D|----7-----7-----7-----7--|-------------------------| x2
A|-------------------------|----7-----7-----7-----7--|
E|-5----5-5----5----5-5---/|-0----0-0----0----0-0---/|


  Chorus 2
G|---------------------------------|---------------------------------|
D|---------------------------------|---------------------------------| x3
A|-7-7-7-7-5-5-5-5---------3-3-3-3-|-7-7-7-7-5-5-5-5---------3-3-3-3-|
E|-----------------5-5-5-5---------|-----------------5-5-5-5---------|

  Post Chorus 2
G|-------------------------|-------------------------|
D|-------------------------|-------------------------|
A|-7\----------------------|-------------------------|
E|-------------------------|-------------------------|

G|-------------------------|-------------------------|
D|-------------------------|-------------------------|
A|-------------------------|----------------------7\-|
E|-------------------------|-------------------------|

  Solo
G|-------------------------|-------------------------|
D|-------------------------|----10----10----10----10-|
A|----7-----7-----7-----7--|-------------------------|
E|-0----0-0----0----0-0---/|-8----8-8----8----8-8---\|

G|-------------------------|-------------------------|
D|----7-----7-----7-----7--|-------------------------| x2
A|-------------------------|----7-----7-----7-----7--|
E|-5----5-5----5----5-5---/|-0----0-0----0----0-0---/|


  Chorus 2
G|---------------------------------|---------------------------------|
D|---------------------------------|---------------------------------| repeat and fade out
A|-7-7-7-7-5-5-5-5---------3-3-3-3-|-7-7-7-7-5-5-5-5---------3-3-3-3-|
E|-----------------5-5-5-5---------|-----------------5-5-5-5---------|


Version 1 of this bass tab is excellent.  My version has different fingerings for the 
verse and the whole layout of the song.  Hope it helps.  Happy hunting.

| /  slide up
| \  slide down
| h  hammer-on
| p  pull-off
| ~  vibrato
| +  harmonic
| x  Mute note
===============================================================================

            
            
Suggest correction
Creating personal tab
Creating personal tab
You can edit any tab online and save it as your Personal.

You can edit, replace or remove any tab part or add personal notes – all changes will be seen only by you.

Personal tabs can be accessed anytime from any device, even offline.
Learn more »
Give kudos to tab author, rate the tab!
1 2 3 4 5
comments
print report bad tab
guest
You may want to rate the tab now too:
select rating
Wanna post a correction for this tab? Suggest correction