Oops, an error
Loading. Please wait.

Compass tab

430 views 36 this week
no commentswrite comment
1 2 3 4 5
2 more votes to show rating
add to favorites
×
Save as Personal and add changes to this tab that will be seen only by you. Learn more ›
×
You can save this tab as Personal to edit and correct it or add notes. All changes will be seen only by you. Learn more »
launch autoscroll
font size
0
reset
how to read this tab
guitar tuner
edit
Autoscroll
slow
fast
+/-
esc
set tempo
stop
About this tab version
There isn't a tab already for this song so I decided to make one so that other people can learn it fairly easily as well. Was this info helpful? Yes No
[Intro] 
   E             A             E           A
e|-----0-------------0-----|-------0------------0--------|
B|-------0-------------2---|---------0------------2------|
G|---1-----1-------2-----2-|-----1-----1------2-----2----|
D|-2-------------2---------|---2------------2------------|
A|-------------------------|-----------------------------|
E|-------------------------|-----------------------------|

[Verse]
   E             A             E            A            E           A            E           A
e|-----0-------------0-----|-------0------------0-----|------0-----------0-----|------0-----------0-------|
B|-------0-------------2---|---------0------------2---|--------0-----------2---|--------0-----------2-----|
G|---1-----1-------2-----2-|-----1-----1------2-----2-|----1-----1-----2-----2-|----1-----1-----2-----2---|
D|-2-------------2---------|---2------------2---------|--2-----------2---------|--2-----------2-----------|
A|-------------------------|--------------------------|------------------------|--------------------------|
E|-------------------------|--------------------------|------------------------|--------------------------|

E             A            E        A
I know that I never got to tell you,     
E              A               E     A
Everything that you deserve to hear
 
   A          F#m         Bm         E           F#m        B          E
e|-----0----------2-----|-----2----------0-----|-----2----------2----------0-----|
B|-------2----------2---|-------3----------0---|-------2----------4----------0---|
G|---2-----2----2-----2-|---4-----4----1-----1-|---2-----2----4-----4----1-----1-|
D|-2----------4---------|-4----------2---------|-4----------4----------2---------|
A|----------------------|----------------------|---------------------------------|
E|----------------------|----------------------|---------------------------------|

A                F#m     
Trapped inside a picture frame
Bm           E 
Am I just another name
F#m          B           E
Hanging onto you, do you hear?

   E             A             E            A            E           A            E           A
e|-----0-------------0-----|-------0------------0-----|------0-----------0-----|------0-----------0-------|
B|-------0-------------2---|---------0------------2---|--------0-----------2---|--------0-----------2-----|
G|---1-----1-------2-----2-|-----1-----1------2-----2-|----1-----1-----2-----2-|----1-----1-----2-----2---|
D|-2-------------2---------|---2------------2---------|--2-----------2---------|--2-----------2-----------|
A|-------------------------|--------------------------|------------------------|--------------------------|
E|-------------------------|--------------------------|------------------------|--------------------------|

E             A              E        A
Got a million miles worth of sorries
E              A                 E     A
Never took the chance to say goodbye

   A          F#m         Bm         E           F#m        B          E
e|-----0----------2-----|-----2----------0-----|-----2----------2----------0-----|
B|-------2----------2---|-------3----------0---|-------2----------4----------0---|
G|---2-----2----2-----2-|---4-----4----1-----1-|---2-----2----4-----4----1-----1-|
D|-2----------4---------|-4----------2---------|-4----------4----------2---------|
A|----------------------|----------------------|---------------------------------|
E|----------------------|----------------------|---------------------------------|

A            F#m
Reaching out across the blue
Bm                  E  
To put myself right back to you
F#m                B               E
Stuck here drawing maps across the sky

[Pre Chorus]
e|-----4-----------2-----------0-----------0--------4---2---0--|
B|-------5-----------4-----------2-----------0------5---4---2--|
G|---6-----6-----4-----4-----2-----2-----1-----1----6---4---2--|
D|-6-----------4-----------2-----------2------------6---4---2--|
A|--------------------------------------------------4---2---0--|
E|--------------------------------------------------X---X---X--|

C#m  B
Hold on
A           E
Hold on for dear life
C#m B    A
One last time

[Chorus]

E
Hit by the waves
E           F#m
Caught in a shipwreck
C#m     B            A
Oh, I'm breaking for you
E  
I may be lost
    E              F#m
But my heart's the compass
C#m    B              A
Oh, it points back to you

E  F#m  C#m  B
   A              A
It points back to you
E  F#m  C#m  B
   A              A
It points back to you

[Verse]
   E             A             E            A            E           A            E           A
e|-----0-------------0-----|-------0------------0-----|------0-----------0-----|------0-----------0-------|
B|-------0-------------2---|---------0------------2---|--------0-----------2---|--------0-----------2-----|
G|---1-----1-------2-----2-|-----1-----1------2-----2-|----1-----1-----2-----2-|----1-----1-----2-----2---|
D|-2-------------2---------|---2------------2---------|--2-----------2---------|--2-----------2-----------|
A|-------------------------|--------------------------|------------------------|--------------------------|
E|-------------------------|--------------------------|------------------------|--------------------------|

  E                 A             E       A
I never should have taken you for granted
    E                  A              E       A
But should've would've could've never helps

    A          F#m         Bm         E           F#m        B          E
e|-----0----------2-----|-----2----------0-----|-----2----------2----------0-----|
B|-------2----------2---|-------3----------0---|-------2----------4----------0---|
G|---2-----2----2-----2-|---4-----4----1-----1-|---2-----2----4-----4----1-----1-|
D|-2----------4---------|-4----------2---------|-4----------4----------2---------|
A|----------------------|----------------------|---------------------------------|
E|----------------------|----------------------|---------------------------------|
  A              F#m
I miss you being next to me
  Bm          E 
A victim of reality
F#m              B                  E
Knowing that you might have someone else

   E             A             E            A            E           A            E           A
e|-----0-------------0-----|-------0------------0-----|------0-----------0-----|------0-----------0-------|
B|-------0-------------2---|---------0------------2---|--------0-----------2---|--------0-----------2-----|
G|---1-----1-------2-----2-|-----1-----1------2-----2-|----1-----1-----2-----2-|----1-----1-----2-----2---|
D|-2-------------2---------|---2------------2---------|--2-----------2---------|--2-----------2-----------|
A|-------------------------|--------------------------|------------------------|--------------------------|
E|-------------------------|--------------------------|------------------------|--------------------------|

E              A             E        A
We were always thinking bout tomorrow
    E               A        E        A
But now I'm feeling stuck in yesterday

   A          F#m         Bm         E           F#m        B          E
e|-----0----------2-----|-----2----------0-----|-----2----------2----------0-----|
B|-------2----------2---|-------3----------0---|-------2----------4----------0---|
G|---2-----2----2-----2-|---4-----4----1-----1-|---2-----2----4-----4----1-----1-|
D|-2----------4---------|-4----------2---------|-4----------4----------2---------|
A|----------------------|----------------------|---------------------------------|
E|----------------------|----------------------|---------------------------------|

A                   F#m
The comfort that we left behind
   Bm                E
Is something that we lost in time
    F#m           B            E
And now I'm gonna find another way

[Pre Chorus]
  C#m          B           A           E            C#m B   A
e|-----4-----------2-----------0-----------0--------4---2---0--|
B|-------5-----------4-----------2-----------0------5---4---2--|
G|---6-----6-----4-----4-----2-----2-----1-----1----6---4---2--|
D|-6-----------4-----------2-----------2------------6---4---2--|
A|--------------------------------------------------4---2---0--|
E|--------------------------------------------------X---X---X--|

   C#m  B
To hold on
A           E
Hold on for dear life
C#m B    A
One last try

[Chorus]
E
Hit by the waves
E           F#m
Caught in a shipwreck
C#m     B            A
Oh, I'm breaking for you
E  
I may be lost
    E              F#m
But my heart's the compass
C#m    B              A
Oh, it points back to you

E  F#m  C#m  B
   A              A
It points back to you
E  F#m  C#m  B
   A              A
It points back to you

[Bridge]
    E    C#m B   A     E    C#m B   A
e|--0----4---2---0-----0----4---2---0--|
B|--0----5---4---2-----0----5---4---2--|
G|--1----6---4---2-----1----6---4---2--|
D|--2----6---4---2-----2----6---4---2--|
A|--2----4---2---0-----2----4---2---0--|
E|--0----X---X---X-----0----X---X---X--|

E
I know that we tried
    C#m        B             A
But somehow we fell from the sky
E
I just hope that time
    C#m            B             A
Can breath our old wings back to life

E
Hit by the waves
E           F#m
Caught in a shipwreck
E       B            A
Oh, I'm breaking for you

[Chorus]

E
Hit by the waves
E           F#m
Caught in a shipwreck
C#m     B            A
Oh, I'm breaking for you
E  
I may be lost
    E              F#m
But my heart's the compass
C#m    B              A
Oh, it points back to you

E  F#m  C#m  B
   A              A
It points back to you
E  F#m  C#m  B
   A              A
It points back to you

            
            
Suggest correction
Creating personal tab
Creating personal tab
You can edit any tab online and save it as your Personal.

You can edit, replace or remove any tab part or add personal notes – all changes will be seen only by you.

Personal tabs can be accessed anytime from any device, even offline.
Learn more »
Give kudos to tab author, rate the tab!
1 2 3 4 5
comments
print report bad tab
guest
You may want to rate the tab now too:
select rating
Wanna post a correction for this tab? Suggest correction