Oops, an error
Loading. Please wait.

Breakdown bass

version 1
version 1

Whole song

1,807 views 1 this week
no commentswrite comment
1 2 3 4 5
3 more votes to show rating
add to favorites
×
Save as Personal and add changes to this tab that will be seen only by you. Learn more ›
×
You can save this tab as Personal to edit and correct it or add notes. All changes will be seen only by you. Learn more »
launch autoscroll
font size
0
reset
guitar tuner
edit
Autoscroll
slow
fast
+/-
esc
set tempo
stop
Breakdown Bass Tab By FTSK
DROP D
DADG
ENJOY

Not Much Bass In This Song But Its Very Good.

Intro wen real drums come in
G|-------------------------------|
D|-------------------------------|
A|------------------------8-10-8-|x4
D|-6-6-6--10--8-8-8--8h10--------|

Verse Thing 1
G|------------------------------|
D|------------------------------|
A|------------------------------|
D|-6666-6666-6h10-8888-8888-8p3-|

G|----------------------------|
D|----------------------------|
A|----------------------------|
D|-6666-6666-6h10-8888-8888-8-|

G|-------------|
D|-------------|
A|-------------|
D|-6---10---8--|

NO BASS
then it comes in

Verse thing 2
G|------------------------|
D|------------------------|
A|------------------------|x2
D|-6666-10101010-88888888-|

D|-6---

Chorus:

G|-------------------------------|
D|-------------------------------|
A|------------------------8-10-8-|x4
D|-6-6-6--10--8-8-8--8h10--------|

Other Chourus Thing:

G|--------------------------------------------|
D|--------------------------------------------|
A|--------------------------------------------|x2
D|-66666666-1010101010101010-8888888888888888-|

Bridge:

G|--------------------------------------------------------------------|
D|----------------------------1010-101010-----------------------------|
A|----1010-101010-1212-121212-------------1212-121212-1010-101010-----|
D|-10-------------------------------------------------------------10--|

G|------------------------------------------|
D|-----------------66-666-------------------|
A|---66-666-88-888--------88-888-66-666-----|
D|-6------------------------------------6---|

FUNKY PART:

G|--------------------------------------------|
D|--------------------------------------------|
A|--------------------------------------------|x2
D|-10-10-10-1010-13-13-8-88-6-6-6-66-6-6-6-66-|

Build up:

G|--------------------------------------------------|
D|--------------------------------------------------|
A|--------------------------------------------------|x4
D|-101010101010101010101010101010106666666666666666-

G|------------------|
D|------------------|
A|------------------|
D|-4444444455555555-

END CHORUS:

G|---------------------------------------|
D|---------------------------------------|
A|---------------------------------------|till end
D|-7777777----11111111111111----99999999-|

            
            
Suggest correction
Creating personal tab
Creating personal tab
You can edit any tab online and save it as your Personal.

You can edit, replace or remove any tab part or add personal notes – all changes will be seen only by you.

Personal tabs can be accessed anytime from any device, even offline.
Learn more »
Give kudos to tab author, rate the tab!
1 2 3 4 5
comments
print report bad tab
guest
You may want to rate the tab now too:
select rating
Wanna post a correction for this tab? Suggest correction