Oops, an error
Loading. Please wait.

Breakdown bass

version 2
version 2

Whole song

2,244 views 1 this week
1 commentread comment
1 2 3 4 5
1 last vote to show rating
add to favorites
×
Save as Personal and add changes to this tab that will be seen only by you. Learn more ›
×
You can save this tab as Personal to edit and correct it or add notes. All changes will be seen only by you. Learn more »
launch autoscroll
font size
0
reset
guitar tuner
edit
Autoscroll
slow
fast
+/-
esc
set tempo
stop
VERSE: Tacet 

CHORUS PART ONE: "You Might As Well Leave"
G|------------------------------------------------------------------------------|
D|------------------------------------------------------------------------------|
A|-------3---1-11-1111-------3---1-11-1111----333-1-11-1111-------3---1-11-1111-|
E|-4-4-----------------4-4-----------------444--------------4-4-----------------|

CHORUS PART TWO: "It's A Breakdown"
G|---------------------------------------------------------------------------|
D|---------------------------------------------------------------------------|
A|----------3~-----1~----------------------3~------111111111-----------------|
E|-4~------------------------------4~----------------------------------------|
PM.                                                .........

PRE VERSE:                             
G|---------------------------------------------------------------------------|
D|---------------------------------------------------------------------------|
A|-----------3--11--1-1--1h3------------3--11--1-1--1h3-------3-----1---------|
E|-44--4-4--4-----------------44--4-4--4----------------4---------------------|

VERSE: tacet until "You're the tip tip top..."
G|-----------------------------------------------------------------|
D|-----------------------------------------------------------------|
A|------333-1-1-111-----333-1-1-111--------------------------------|
E|--4-4-------------4-4-------------4~-----------------------------|

CHORUS PART ONE:
G|------------------------------------------------------------------------------|
D|------------------------------------------------------------------------------|
A|-------3---1-11-1111-------3---1-11-1111----333-1-11-1111-------3---1-11-1111-|
E|-4-4-----------------4-4-----------------444--------------4-4-----------------|

CHORUS PART TWO:
G|---------------------------------------------------------------------------|
D|---------------------------------------------------------------------------|
A|---------3333333311111111----------------33333333111111111-----------------|
E|-44444444------------------------44444444----------------------------------|

BASS SOLO!!!!
G|------------------------------------0-1-0-------|
D|-------------6-5-----------1~-------------3-1---|
A|----3-5-6--8------8-6-5-1~----------------------|
E|-4~---------------------------------------------|

CRAZY TECHNO PART: 
G|-------------------------------------------------------|
D|-------------------------------------------------------|
A|----6-8---668----6-8---668----6-8---668----6-8---668---|x2
E|-8------88----8------88----4------44----4------44------|

BRIDGE: "When Wood Floors Meet High Heels..."
G|-------------------------------------|
D|-------------------------------------|
A|-3333333333333333--------------------|x4
E|-----------------4444444444444444----|

KEY CHANGE
G|-------------------|
D|-------------------|
A|-------------------|
E|-2222222233333333--|

CHORUS PART ONE:
G|------------------------------------------------------------------------------|
D|------------------------------------------------------------------------------|
A|-------4---2-22-2222-------4---2-22-2222----444-2-22-2222-------4---2-22------|
E|---------------------5-5-----------------555--------------5-5-----------------|

CHORUS PART TWO:
G|------------------------------------------------------------------------|
D|------------------------------------------------------------------------|
A|---------444444442222222222222222--------4444----222222222~-------------|
E|-55555555------------------------5555-----------------------------------|

OUTRO:
G|------|
D|------|
A|------|
E|-5~---|



            
            
Suggest correction
Creating personal tab
Creating personal tab
You can edit any tab online and save it as your Personal.

You can edit, replace or remove any tab part or add personal notes – all changes will be seen only by you.

Personal tabs can be accessed anytime from any device, even offline.
Learn more »
Give kudos to tab author, rate the tab!
1 2 3 4 5
comments
print report bad tab
1 comment total.
0 reply
kenziethomas13 254 Jan 29, 2013 03:39 PM

I know that this is in Drop D, but you have all the tabs lined up in Standard. Otherwise, great tab. :)

guest
You may want to rate the tab now too:
select rating
Wanna post a correction for this tab? Suggest correction