Oops, an error
Loading. Please wait.

Coffee Break intro tab

version 1
version 1

Intro

Whole song

12,452 views 1 this week
9 commentsread comments
1 2 3 4 5
x 6
add to favorites
×
Save as Personal and add changes to this tab that will be seen only by you. Learn more ›
×
You can save this tab as Personal to edit and correct it or add notes. All changes will be seen only by you. Learn more »
launch autoscroll
font size
0
reset
how to read this tab
guitar tuner
edit
Autoscroll
slow
fast
+/-
esc
set tempo
stop
Here is a lame ass attempt to tab this, actually I didnt do this but a friend did, hahaha.

Standard Tuning: Best on Acoustic!
Capo on 5th fret.


-------------------------------------------------------------------|
--------1-----1---------3------3--------1-----1--------------------|
------0---0-----------0---0-----------2---2------------0--------0--|  X2
----2-------2-------2--------2------2-------2--------2--------2----|
--3--------------2----------------0----------------2--------2------|
-------------------------------------------------0--------0--------|

And thats all Ive got, just started this tab to get the ball going and get people to 
tab it out.

rave1010@hotmail.com

            
            
Suggest correction
Creating personal tab
Creating personal tab
You can edit any tab online and save it as your Personal.

You can edit, replace or remove any tab part or add personal notes – all changes will be seen only by you.

Personal tabs can be accessed anytime from any device, even offline.
Learn more »
comments
print report bad tab
9 comments total. Showing first comments.
0 reply
enjoingit33 10 Jun 17, 2008 09:31 AM

dose not sound correct at all.

0 reply
Schwabee 256 Oct 31, 2008 11:27 AM

..sorry its wrong

0 reply
dannyguitar 10 Nov 27, 2008 09:04 AM

the beginnig seems ok but that ending should be like this

-------------------------------------------------------------------|
--------1-----1---------3------3--------1-----1----------1--------1--|
------0---0-----------0---0-----------2---2------------0--------0--| X2
----2-------2-------2--------2------2-------2--------0--------0----|
--3--------------2----------------0----------------2--------2------|
-------------------------------------------------2--------2--------|

guest
Wanna post a correction for this tab? Suggest correction