Oops, an error
Loading. Please wait.

Men In Black tab

version 3
version 3

Whole song

Interactive

3,757 views 1 this week
no commentswrite comment
1 2 3 4 5
2 more votes to show rating
add to favorites
×
Save as Personal and add changes to this tab that will be seen only by you. Learn more ›
×
You can save this tab as Personal to edit and correct it or add notes. All changes will be seen only by you. Learn more »
launch autoscroll
font size
0
reset
how to read this tab
guitar tuner
edit
Autoscroll
slow
fast
+/-
esc
set tempo
stop
Author
ok this is my first tab, its a pretty simpel song but really cool, great band!
this was origanly tabed by "scottkiely" i just changed a few things and fineshed the song

(intro) listen for strumming
E|---------------------------------------------------------|
B|---------------------------------------------------------|
G|---------------------------------------------------------|
D|----3--------10-----11--------8--------------------------|
A|----3--------10-----11--------8--------------------------|
D|----3--------10-----11--------8--------------------------|

(verse)
E|------------------------------------------------9-8------|
B|-----6-9-9-9-9----6-9-9h11-----6--9-9-9-9----6------9----|
G|---------------------------------------------------------| Repeat
D|---------------------------------------------------------|
A|---------------------------------------------------------|
D|---------------------------------------------------------|

(chores) same as intro listen for strumming
E|---------------------------------------------------------|
B|---------------------------------------------------------|
G|---------------------------------------------------------|
D|---3-------10--------11------8---------------------------|
A|---3-------10--------11------8---------------------------|
D|---3-------10--------11------8---------------------------|

there is a bass part the back to the verse


this cool part its just strum fast its the same as the intro but with differant strumming
E|---------------------------------------------------------|
B|---------------------------------------------------------|
G|---------------------------------------------------------|
D|---------------------------------------------------------|
A|----3-----10-----11-----8--------------------------------|
D|----3-----10-----11-----8--------------------------------|


ok this is my favorite part

E|---------------------------------------------------------|
B|---------------------------------------------------------|
G|---------------------------------------------------------|
D|---------------------------------------------------------|
A|--33--3---1--3-----33--3---3*--3--1----1-3--2-3----------|
D|--33--3---1--3-----33--3-------3--1----1-3--2-3----------|

E|---------------------------------------------------------|
B|---------------------------------------------------------|
G|---------------------------------------------------------|
D|----------------\\\--------------------------------------|
A|--33--3---1--3--\\\----33--3--3*--3--1----1-3------------|
D|--33--3---1--3--\\\----33--3------3--1----1-3------------|


i missed one part? but its most drums and stuff. but the it duz the chores out

h= hammer on
p= pull off
\= slide
*= harmonic


ok its a pretty easy song but i didnt find the whole thing. please rate or comment,  or 
me at "phillyphill11@gmail.com"

            
            
Suggest correction
Creating personal tab
Creating personal tab
You can edit any tab online and save it as your Personal.

You can edit, replace or remove any tab part or add personal notes – all changes will be seen only by you.

Personal tabs can be accessed anytime from any device, even offline.
Learn more »
Give kudos to tab author, rate the tab!
1 2 3 4 5
comments
print report bad tab
guest
You may want to rate the tab now too:
select rating
Wanna post a correction for this tab? Suggest correction