Oops, an error
Loading. Please wait.

Hidroponica tab

by Forfun
160 views 1 this week
no commentswrite comment
1 2 3 4 5
3 more votes to show rating
add to favorites
×
Save as Personal and add changes to this tab that will be seen only by you. Learn more ›
×
You can save this tab as Personal to edit and correct it or add notes. All changes will be seen only by you. Learn more »
launch autoscroll
font size
0
reset
how to read this tab
guitar tuner
edit
Autoscroll
slow
fast
+/-
esc
set tempo
stop
Author
Tom: D

(intro base 2x) A5 B5 D5 E5

(riff)

E|------------------------------------|
B|------------------------------------|
G|9-xxxx-9-9--9-xxxx-9-8--------------|
D|7-xxxx-7-7--7-xxxx-9-9--------------|
A|------------------------------------|
E|------------------------------------|


(acordes em power chord)

A5
Se a vida gasta em você
B5
Te faz de pano de chão
D5                     E5
Fica tranqüilo porque nada é em vão
A5                                (abafada)
E o que se tem a fazer
B5
É relaxar e beber
D5                        E5
Trocar uma idéia com os amigos no BG

A5
Gastar a onda no céu
B5
E o dinheiro em motel
D5                     E5
E lembrar sempre de agradecer por
A5 B5  D5           E5        A5  B5
Tudo   vai virar passado no futuro
   D5        E5         F#5 E5
E dessa vida não se leva nada

A5                     D5
Felicidade é um fim de tarde olhando o mar
A5                     D5    E5
E a gravidade não te impede de voar
A5           D5
Longe de toda negatividade
       F#5        E5     D5   A5
A onda boa se propaga no ar

(base 2x) A5 B5 D5 E5

A5                B5
A boa é se divertir
                      D5
Lançar mais uma tattoo
                        E5
Mandar os problemas e geral tomar no cú
A5                 B5
Vou me largar no sofá
                 D5
Tomar um mate-limão
                           E5          A5
Reflito um pouco e chego a uma conclusão

A5  B5  D5                E5         A5  B5
Nada   brilha mais que a vibe da tua alma
 D5        E5          F#5 E5
O bem e o amor superam tudo

(dedilhado 8x)

E|---5---5---5--5-----5----5---5--------------------|
B|-5--5---5---5--5--5--5---5---5--------------------|
G|-----7---7---7--7--4--4-4---4---------------------|
D|--------------------------------------------------|
A|5------9------4-----------------------------------|
E|--------------------4---5-------------------------|

segunda guitarra abafada( D5 E5 D/C# G#5 A5 )

E quando o sol invade os olhos
É só pra te lembrar
Que o bom da vida não tem preço
E é hora de acordar

(solo)
   (guitarra 1)                        (guitarra 2)

E|------------------------------|---------------------------|
B|--10--9--10--12--10--9--10----|-14-12-14-15-14-12-14------|
G|------------------------------|---------------------------|
D|------------------------------|---------------------------|
A|------------------------------|---------------------------|
E|------------------------------|---------------------------|


(guitarra 1 e 2 juntas    |   (guitarra 1)                        (guitarra 2)

----------------------------9-7-7-9-10-9-7-9---|----------------------12---------14------------|
--10--9--10--12--10--9--10---------------------|-14-12-14-15-14-12-14----14-12-14---14-12-14---|
-----------------------------------------------|-----------------------------------------------|
-----------------------------------------------|-----------------------------------------------|
-----------------------------------------------|-----------------------------------------------|
-----------------------------------------------|-----------------------------------------------|


          (guitarra 1)                 (guitarra 2)

----------------------------------|-------------------------|
--10--9-10-10h12--10--9--10-------|14-12-14 14s15-14-12-14--|
----------------------------------|-------------------------|
----------------------------------|-------------------------|
----------------------------------|-------------------------|
----------------------------------|-------------------------|



----------------------------9-7-7-9-10-9-7-9---|----------------------12---------14------------|
--10--9--10--12--10--9--10---------------------|-14-12-14-15-14-12-14----14-12-14---14-12-14---|
-----------------------------------------------|-----------------------------------------------|
-----------------------------------------------|-----------------------------------------------|
-----------------------------------------------|-----------------------------------------------|
-----------------------------------------------|-----------------------------------------------|


A5                      D5
Felicidade é um fim de tarde olhando o mar
A5                     D5   E5
E a gravidade não te impede de voar
A5            D5
Perto de toda positividade
       F#5        E5    D5   A5
A onda boa se propaga no ar

            
            
Suggest correction
Creating personal tab
Creating personal tab
You can edit any tab online and save it as your Personal.

You can edit, replace or remove any tab part or add personal notes – all changes will be seen only by you.

Personal tabs can be accessed anytime from any device, even offline.
Learn more »
Give kudos to tab author, rate the tab!
1 2 3 4 5
comments
print report bad tab
guest
You may want to rate the tab now too:
select rating
Wanna post a correction for this tab? Suggest correction