Oops, an error
Loading. Please wait.

Beware The Jub Jub Bird And Shun The Frumious Bandersnatch tab

version 1
version 1

Whole song

2,803 views 1 this week
2 commentsread comments
1 2 3 4 5
x 6
add to favorites
×
Save as Personal and add changes to this tab that will be seen only by you. Learn more ›
×
You can save this tab as Personal to edit and correct it or add notes. All changes will be seen only by you. Learn more »
launch autoscroll
font size
0
reset
how to read this tab
guitar tuner
edit
Autoscroll
slow
fast
+/-
esc
set tempo
stop
Author
Difficulty
song:beware the jb jb bird....
band:forgive durden
album:wonderland
website:forgivedurden.com

h-hammer
p-pull
/-slide
hr-pinch harmonic
.-palm mute
x-scratch

tuning:standard

e-
b-
g-
d-
a-
E-

forgive durden is one of the best bands ever. for this tab i 
would say it is mostly correct for the most part there are a 
few parts i wasnt sure about. i mixed the two guitars 
together so you can play it alone but if you have any 
corrections just e-mail me at michaelrocks14@aol.com. have fun :)


intro-

guitar:1
distrotion

e|--------------------------------------------------------------|
b|--------------------------------------------------------------|
g|------------------5-----------------8-8-6-6-5-5-3-3-----------|
d|-3-3--------------5-----------5-5---x-x-x-x-x-x-x-x-----------|    
a|-3-3---------1-/3-3--4p3------5-5---6-6-4-4-3-3-1-1-----------|
E|-1-1-1h3h4----------------6p4-3-3-----------------------------|



e|--------------------------------------------------------------|
b|--------------------------------------------------------------|
g|------------------5-----------------8-8-6-6-5-5-3-3-----------|
d|-3-3--------------5-----------5-5---x-x-x-x-x-x-x-x-----------|    
a|-3-3---------1-/3-3--4p3------5-5---6-6-4-4-3-3-1-1-----------|
E|-1-1-1h3h4----------------6p4-3-3---.-.-.-.-.-.-.-.-----------|


e|----------------------------------x-x--x-x-9------------------|
b|----------------------------------x-x--6-5-x------------------|
g|------------------5------------6--x-x--x-x-x------------------|
d|-3-3--------------5------------6--x-x--x-x-x------------------|    
a|-3-3--------------3------------4--x-x--x-x-8------------------|
E|-1-1------------------------------x-x--4-3-x------------------|


and during this part the bass plays...

g|--------------------------------------------------------------|
d|--------------------------------------------------------------|    
a|-------------1-/3-3--4p3--------------------------------------|
E|-1-1-1h3h4----------------6p4-3-3-----------------------------|

then the guitar cuts out for the verse and the bass plays....                                      
                                      
verse-

bass
clean:
repeat until pre-chorus...
g|--------------------------------------------------------------|
d|--------------------------------------------------------------|    
a|--------------------------------------------------------------|
E|--4-4---4-4---4-4---4-4---3-3---3-3---3-3---3-3---------------|

then guitar comes back in with...
pre-chorus:
guitar1
distortion:

e|--------------------------------------------------------------|
b|--------------------------------------------------------------|
g|-6-6-6-6-6-6-6-6--8-8-8-8-8-8-8-8-----------------------------|
d|-x-x-x-x-x-x-x-x--x-x-x-x-x-x-x-x-----------------------------|   2x 
a|-4-4-4-4-4-4-4-4--6-6-6-6-6-6-6-6-----------------------------|
E|--------------------------------------------------------------|

chorus-
guitar1
distortion:

repeat this until end of chorus...
e|--------------------------------------------------------------|
b|--------------------------------------------------------------|
g|------------------5-----------------8-8-6-6-5-5-3-3-----------|
d|-3-3--------------5-----------5-5---x-x-x-x-x-x-x-x-----------|    
a|-3-3---------1-/3-3--4p3------5-5---6-6-4-4-3-3-1-1-----------|
E|-1-1-1h3h4----------------6p4-3-3-----------------------------|

then the guitar cuts out again and the bass plays...

g|--------------------------------------------------------------|
d|--------------------------------------------------------------|    
a|--------------------------------------------------------------|   2x
E|-6-6--6-6--6-6--6-6--9-9-8-8--1-1--1-1--1-1--1-1---1-1--4-4---|

and then the guitar plays...
e|-x-x--x-x-x-------|
b|-x-x--6-x-5-------|
g|-x-x--x-x-x-------|
d|-x-x--x-x-x-------|    
a|-x-x--x-x-x-------|
E|-x-x--4-x-3-------|


and then it goes back to the verse where the guitar cuts out again 
and the bass plays...

repeat until pre-chorus
g|--------------------------------------------------------------|
d|--------------------------------------------------------------|    
a|--------------------------------------------------------------|   
E|-6-6--6-6--6-6--6-6--9-9-8-8--1-1--1-1--1-1--1-1---1-1--4-4---|


then guitar comes back in with...
pre-chorus:
guitar1
distortion:

e|--------------------------------------------------------------|
b|--------------------------------------------------------------|
g|-6-6-6-6-6-6-6-6--8-8-8-8-8-8-8-8-----------------------------|
d|-x-x-x-x-x-x-x-x--x-x-x-x-x-x-x-x-----------------------------|   4x 
a|-4-4-4-4-4-4-4-4--6-6-6-6-6-6-6-6-----------------------------|
E|--------------------------------------------------------------|


and then play chorus twice...

e|--------------------------------------------------------------|
b|--------------------------------------------------------------|
g|------------------5-----------------8-8-6-6-5-5-3-3-----------|
d|-3-3--------------5-----------5-5---x-x-x-x-x-x-x-x-----------|    
a|-3-3---------1-/3-3--4p3------5-5---6-6-4-4-3-3-1-1-----------|
E|-1-1-1h3h4----------------6p4-3-3-----------------------------|

and im still workin on the end


            
            
Suggest correction
Creating personal tab
Creating personal tab
You can edit any tab online and save it as your Personal.

You can edit, replace or remove any tab part or add personal notes – all changes will be seen only by you.

Personal tabs can be accessed anytime from any device, even offline.
Learn more »
comments
print report bad tab
2 comments total.
0 reply
RyanNewYork 10 Feb 07, 2007 03:00 AM

I think this is alot more accurate than all the other tabs, chords are played through out the intro and the song not just picking strings 5 stars for you

0 reply
FinderofNemo 337 May 15, 2007 09:29 PM

There's Some Stuff Missing, Like In The Verses They Play Small Riffs Throughout It, And Theres More Going On Before The Chorus (I Think..) But What You Have Is Great Good Job =]

guest
You may want to rate the tab now too:
select rating
Wanna post a correction for this tab? Suggest correction