Oops, an error
Loading. Please wait.

Beware The Jub Jub Bird And Shun The Frumious Bandersnatch tab

version 3
version 3

Whole song

566 views 1 this week
2 commentsread comments
1 2 3 4 5
3 more votes to show rating
add to favorites
×
Save as Personal and add changes to this tab that will be seen only by you. Learn more ›
×
You can save this tab as Personal to edit and correct it or add notes. All changes will be seen only by you. Learn more »
launch autoscroll
font size
0
reset
how to read this tab
guitar tuner
edit
Autoscroll
slow
fast
+/-
esc
set tempo
stop
Author
-------------------------------------------------------------------------------
 Beware The Jub Jub Bird and Shun the Frumious Bandersnatch - Forgive Durden
-------------------------------------------------------------------------------
Tabbed by:Dominic! (NikkoFreako)
Email: thatfunnyd00d@hotmail.com

I think this is pretty much right, except for a few little missing things here and 
Constructive criticism is appreciated.

Tuning: Guitar 1: Drop D (DADGBe)
        Guitar 2: Standard (EADGBe)

Guitar 1:
Intro
e|------------------------------------------------------------------------|
B|------------------------------------------------------------------------|
G|---------5-5---------------------------------5-5------------------------|
D|---3-3---5-5---5-5---3-3-5-5-6-6-1-1---3-3---5-5---5-5------------------|
A|---3-3---3-3---5-5---3-3-5-5-6-6-1-1---3-3---3-3---5-5------------------|
D|---3-3---------5-5---3-3-5-5-6-6-1-1---3-3---------5-5------------------|

e|------------------------------------------------------------------------|
B|------------------------------------------------------------------------|
G|---------5---6---666--5-------------------------------------------------|
D|---3-3---5---6---666--5--3----------------------------------------------|
A|---3-3---3---4---444--3-------------------------------------------------|
D|---3-3------------------------------------------------------------------|

Pre-Chorus
e|------------------------------------------------------------------------|
B|------------------------------------------------------------------------|
G|------------------------------------------------------------------------|
D|--4-4---6-6---4-4---6-6---4-4---6-6---4-4---6-6-------------------------|
A|--4-4---6-6---4-4---6-6---4-4---6-6---4-4---6-6-------------------------|
D|--4-4---6-6---4-4---6-6---4-4---6-6---4-4---6-6-------------------------|

Chorus
e|------------------------------------------------------------------------|
B|------------------------------------------------------------------------|
G|---------5-5---------------------------------5-5------------------------|
D|---3-3---5-5---5-5---3-3-5-5-6-6-1-1---3-3---5-5---5-5------------------|
A|---3-3---3-3---5-5---3-3-5-5-6-6-1-1---3-3---3-3---5-5------------------|
D|---3-3---------5-5---3-3-5-5-6-6-1-1---3-3---------5-5------------------|

e|------------------------------------------------------------------------|
B|------------------------------------------------------------------------|
G|---------5-5---------------------------------5-5------------------------|
D|---3-3---5-5---5-5---3-3-5-5-6-6-1-1---3-3---5-5---5--------------------|
A|---3-3---3-3---5-5---3-3-5-5-6-6-1-1---3-3---3-3---5--------------------|
D|---3-3---------5-5---3-3-5-5-6-6-1-1---3-3---------5--------------------|

e|------------------------------------------------------------------------|
B|------------------------------------------------------------------------|
G|-33-33-33-33-6666-------------------------------------------------------|
D|-33-33-33-33-6666--33-33-33-33-6666-----x2------------------------------|
A|-11-11-11-11-4444--33-33-33-33-6666-------------------------------------|
D|-------------------33-33-33-33-6666-------------------------------------|

Breakdown
e|------------------------------------------------------------------------|
B|------------------------------------------------------------------------|
G|---5-555-5-5-5-5-5-6-666-6-6-6-6-6--------------------------------------|
D|---5-555-5-5-5-5-5-6-666-6-6-6-6-6--3-333-3-3-3-1-1---------------------|
A|---3-333-3-3-3-3-3-4-444-4-4-4-4-4--3-333-3-3-3-1-1---------------------|
D|------------------------------------3-333-3-3-3-1-1---------------------|

e|------------------------------------------------------------------------|
B|------------------------------------------------------------------------|
G|-------------------5-555-5-5-5-5-5-6-666-6-6-6-6-6----------------------|
D|--6-666-6-6-6-6-6--5-555-5-5-5-5-5-6-666-6-6-6-6-6--3-333-3-3-3-1-1-----|
A|--6-666-6-6-6-6-6--3-333-3-3-3-3-3-4-444-4-4-4-4-4--3-333-3-3-3-1-1-----|
D|--6-666-6-6-6-6-6-----------------------------------3-333-3-3-3-1-1-----|

Guitar 2
Intro
e|------------------------------------------------------------------------|
B|------------------------------------------------------------------------|
G|-------------------------------------8-8-6-6-5-5-3-3--------------------|
D|-------------------------------------x-x-x-x-x-x-x-x--------------------|
A|---------------1-3-3---4-3-----------6-6-4-4-3-3-1-1--------------------|
E|---1-1---1-3-4-------------6-4-3-3--------------------------------------|

e|------------------------------------------------------------------------|
B|------------------------------------------------------------------------|
G|------------------------------------8-8-6-6-5-5-3-3---------------------|
D|------------------------------------------------------------------------|
A|---------------1-3-3---4-3----------------------------------------------|
E|---1-1---1-3-4-------------6-4-3-3--------------------------------------|
                                      . . . . . . . .
e|------------------------8-----------------------------------------------|
B|--------------------9-8-------------------------------------------------|
G|---------5---6----------------------------------------------------------|
D|---3-3---5---6----------------------------------------------------------|
A|---3-3---3---4----------------------------------------------------------|
E|---1-1------------------------------------------------------------------|

Verse
e|--------8---------------8-----------------------------------------------|
B|--------9---------------9-----------------------------------------------|
G|--------10--------------10----------------------------------------------|
D|------------------------------------------------------------------------|
A|------------------------------------------------------------------------|
E|------------------------------------------------------------------------|

Pre-Chorus
e|---------------------------------------------9-12-13~-------------------|
B|----------------------------------------8-11----------------------------|
G|--6---6-8---8-6--6-6-6--------------6-9---------------------------------|
D|--x---x-x---x-x--x-x-x----------5-8-------------------------------------|
A|--4---4-6---6-4--4-4-4------4-7-----------------------------------------|
E|------------------------3-6---------------------------------------------|

Chorus
e|-------------------------------------------------------|----------------|
B|-------------------------------------------------------|----------------|
G|------------------------------------8-8-6-6-5-5-3-3----|----------------|
D|-------------------------------------------------------|--x4------------|
A|---------------1-3-3---4-3-----------------------------|----------------|
E|---1-1---1-3-4-------------6-4-3-3---------------------|----------------|

The after chorus part...
e|--8---11----------------------------------------------------------------|
B|--9---11----------------------------------------------------------------|
G|--10--------------------------------------------------------------------|
D|------------------------------------------------------------------------|
A|------------------------------------------------------------------------|
E|------------------------------------------------------------------------|

Pre-chorus kinda
e|---------------------------------------------9-12-13~-------------------|
B|----------------------------------------8-11----------------------------|
G|--6---6-8---8-6--6-6-6--------------6-9---------------------------------|
D|--x---x-x---x-x--x-x-x----------5-8-------------------------------------|
A|--4---4-6---6-4--4-4-4------4-7-----------------------------------------|
E|------------------------3-6---------------------------------------------|

e|------------------------------------------------------------------------|
B|--------------------12b13r12b13-----------------------------------------|
G|---9b10-11b12-12b13-----------------------------------------------------|
D|------------------------------------------------------------------------|
A|------------------------------------------------------------------------|
E|------------------------------------------------------------------------|
Back to the Chorus, and then the breakdown...

BREAKDOWN

e|------------------------------------------------------------------------|
B|-------------------------8---4------------------------------------------|
G|-------------------------8---5------------------------------------------|
D|-------------/6--5--6---------------------------------------------------|
A|--8--6--4--3------------------------------------------------------------|
E|------------------------------------------------------------------------|

I THINK it goes something like this... listen to song for timing.
e|------------------------8----11--------8---11---9-----------------------|
B|--------4h6p4------------------------9---9----9---9---------------------|
G|-----5---------------8----8-------10------------------------------------|
D|------------------10----------------------------------------------------|
A|------------------------------------------------------------------------|
E|------------------------------------------------------------------------|

e|-------3h4p3------------------------8---11------8--11--9----------------|
B|-----4-------4----4/6 6\4---------------------9--9---9--9---------------|
G|---5------------5----------------8----8-----10--------------------------|
D|------------------------------10----------------------------------------|
A|------------------------------------------------------------------------|
E|------------------------------------------------------------------------|
^ Repeat until end of song.



| /  slide up
| \  slide down
| h  hammer-on
| p  pull-off
| ~  vibrato
| +  harmonic
| x  Mute note
===============================================================================

            
            
Suggest correction
Creating personal tab
Creating personal tab
You can edit any tab online and save it as your Personal.

You can edit, replace or remove any tab part or add personal notes – all changes will be seen only by you.

Personal tabs can be accessed anytime from any device, even offline.
Learn more »
Give kudos to tab author, rate the tab!
1 2 3 4 5
comments
print report bad tab
2 comments total.
0 reply
Knutmack4 40 Apr 10, 2009 06:43 AM

really good, at least you gave the whole thing!
thanks

0 reply
juliebays 42 Feb 25, 2010 05:00 PM

i think the only thing right about this is the breakdown.......

guest
You may want to rate the tab now too:
select rating
Wanna post a correction for this tab? Suggest correction