Oops, an error
Loading. Please wait.

Doing It For The Money tab

220 views 1 this week
no commentswrite comment
1 2 3 4 5
3 more votes to show rating
add to favorites
×
Save as Personal and add changes to this tab that will be seen only by you. Learn more ›
×
You can save this tab as Personal to edit and correct it or add notes. All changes will be seen only by you. Learn more »
launch autoscroll
font size
0
reset
how to read this tab
guitar tuner
edit
Autoscroll
slow
fast
+/-
esc
set tempo
stop
FOSTER THE PEOPLE - DOING IT FOR THE MONEY
Check the guitar I composed to this song on this video:           https://www.youtube.com/watch?v=Q67XbYxrVAE

[Chorus]
e|--------------|-------------------------------------------------------------------------|
B|--------------|--8--10---11---11-11-11-10----------------10---10--10----10-10-10-10-----|
G|--------------|--x---x----x----x--x--x--x--10--10-10-10---x----x---x-----x--x--x--x-----|
D|--------------|--5---7----8----8--8--8--7---x---x--x--x---7----7---7-----7--7--7--7-----|
A|--------------|-----------------------------8---8--8--8---------------------------------|
E|--6-6-6-6-6-6-|-------------------------------------------------------------------------|

e|-------------------------------------------------------------------------|
B|--8--10---11---11-11-11-10----------------10---10--10----10-10-10-10-----|
G|--x---x----x----x--x--x--x--10--10-10-10---x----x---x-----x--x--x--x-----|
D|--5---7----8----8--8--8--7---x---x--x--x---7----7---7-----7--7--7--7-----|
A|-----------------------------8---8--8--8---------------------------------|
E|-------------------------------------------------------------------------|

e|-----------------------------------------| x2
B|--8------10------11------11--10------10--|
G|----7-------7--------------------10------|
D|------8-------8--------------------------|
A|-----------------------------------------|
E|-----------------------------------------|

[Verse 1]
e|---------|--8---------11-10-------11-10-------11-10-------11-10-------11-10-------------| x3
B|---------|--8---------------11----------11----------11----------11----------11----------|
G|--x--x---|--8---------------------------------------------------------------------------|
D|--x--x---|------------------------------------------------------------------------------|
A|--x--x---|------------------------------------------------------------------------------|
E|--x--x---|------------------------------------------------------------------------------|

                                               PM|-------------------
e|--8---------11-10-------11-10-------11-10-------------------------|
B|--8---------------11----------11------------------8---------------|
G|--8-------------------------------------------------10-8----------|
D|---------------------------------------------------------10-8-----|
A|------------------------------------------------------------------|
E|------------------------------------------------------------------|

[Pre-Chorus]
PM|----------------------------------------------------------------------
e|----------------------------------------------------------------------------------------|
B|----------------------------------------------------------------------------------------|
G|---8-8-8-8-8-8-----------------------5-5-5-5-5-5--3-3-3-3-3-3-3-3--5--3-----------------|
D|---8-8-8-8-8-8--5-5-5-5-5-5-5-5-5-5--5-5-5-5-5-5--3-3-3-3-3-3-3-3--5--3-----------------|
A|---6-6-6-6-6-6--5-5-5-5-5-5-5-5-5-5--3-3-3-3-3-3--1-1-1-1-1-1-1-1--3--1-----------------|
E|----------------3-3-3-3-3-3-3-3-3-3-----------------------------------------------------|

PM|----------------------------------
e|-------------------------------------11-10-------11-10-------11-10--------------------|
B|-------------------------------------------11----------11-----------------------------|
G|---8-8-8-8-8-8------------------------------------------------------------------------|
D|---8-8-8-8-8-8--5-5-5-5-5-5-5-5-5-5---------------------------------------------------|
A|---6-6-6-6-6-6--5-5-5-5-5-5-5-5-5-5---------------------------------------------------|
E|----------------3-3-3-3-3-3-3-3-3-3-------------------------------------6-6-6-6-6-----|

[Chorus]
e|-------------------------------------------------------------------------| x2
B|--8--10---11---11-11-11-10----------------10---10--10----10-10-10-10-----|
G|--x---x----x----x--x--x--x--10--10-10-10---x----x---x-----x--x--x--x-----|
D|--5---7----8----8--8--8--7---x---x--x--x---7----7---7-----7--7--7--7-----|
A|-----------------------------8---8--8--8---------------------------------|
E|-------------------------------------------------------------------------|


e|-----------------------------------------| x2
B|--8------10------11------11--10------10--|
G|----7-------7--------------------10------|
D|------8-------8--------------------------|
A|-----------------------------------------|
E|-----------------------------------------|

[Verse 1]
e|---------|--8---------11-10-------11-10-------11-10-------11-10-------11-10-------------| x3
B|---------|--8---------------11----------11----------11----------11----------11----------|
G|--x--x---|--8---------------------------------------------------------------------------|
D|--x--x---|------------------------------------------------------------------------------|
A|--x--x---|------------------------------------------------------------------------------|
E|--x--x---|------------------------------------------------------------------------------|

                                               PM|-------------------
e|--8---------11-10-------11-10-------11-10-------------------------|
B|--8---------------11----------11------------------8---------------|
G|--8-------------------------------------------------10-8----------|
D|---------------------------------------------------------10-8-----|
A|------------------------------------------------------------------|
E|------------------------------------------------------------------|

[Pre-Chorus]
PM|----------------------------------------------------------------------
e|----------------------------------------------------------------------------------------| x3
B|----------------------------------------------------------------------------------------|
G|---8-8-8-8-8-8-----------------------5-5-5-5-5-5--3-3-3-3-3-3-3-3--5--3-----------------|
D|---8-8-8-8-8-8--5-5-5-5-5-5-5-5-5-5--5-5-5-5-5-5--3-3-3-3-3-3-3-3--5--3-----------------|
A|---6-6-6-6-6-6--5-5-5-5-5-5-5-5-5-5--3-3-3-3-3-3--1-1-1-1-1-1-1-1--3--1-----------------|
E|----------------3-3-3-3-3-3-3-3-3-3-----------------------------------------------------|


PM|----------------------------------
e|-------------------------------------11-10-------11-10-------11-10--------------------|
B|-------------------------------------------11----------11-----------------------------|
G|---8-8-8-8-8-8------------------------------------------------------------------------|
D|---8-8-8-8-8-8--5-5-5-5-5-5-5-5-5-5---------------------------------------------------|
A|---6-6-6-6-6-6--5-5-5-5-5-5-5-5-5-5---------------------------------------------------|
E|----------------3-3-3-3-3-3-3-3-3-3-------------------------------------6-6-6-6-6-----|

[Chorus]
e|-------------------------------------------------------------------------| x2
B|--8--10---11---11-11-11-10----------------10---10--10----10-10-10-10-----|
G|--x---x----x----x--x--x--x--10--10-10-10---x----x---x-----x--x--x--x-----|
D|--5---7----8----8--8--8--7---x---x--x--x---7----7---7-----7--7--7--7-----|
A|-----------------------------8---8--8--8---------------------------------|
E|-------------------------------------------------------------------------|


e|-----------------------------------------| x2
B|--8------10------11------11--10------10--|
G|----7-------7--------------------10------|
D|------8-------8--------------------------|
A|-----------------------------------------|
E|-----------------------------------------|

[Bridge]
e|--8--8-8-8-8--8/10-10---11-11-11-11-11-11-11-11----6-6-6-6-6-6-6-6-6----8-8-8-8-8-8------------|
B|--9--9-9-9-9--9/11-11---13-13-13-13-13-13-13-13----8-8-8-8-8-8-8-8-8----9-9-9-9-9-9------------|
G|--8--8-8-8-8--8/10-10---12-12-12-12-12-12-12-12----7-7-7-7-7-7-7-7-7----8-8-8-8-8-8------------|
D|-----------------------------------------------------------------------------------------------|
A|-----------------------------------------------------------------------------------------------|
E|-----------------------------------------------------------------------------------------------|

[Solo]
e|---------------------------------------------------------------------------------|
B|--8-------10------11------13------15-------------15-----15-----15------13--11----|
G|--10b12---12b14---13b15---15b17---17b19----------17b19--17b19--17b19-------------|
D|---------------------------------------------------------------------------------|
A|---------------------------------------------------------------------------------|
E|---------------------------------------------------------------------------------|


e|-----------------------------------------------------------------------------------------|
B|-13-11----11-----------------------------------------------------------------------------|
G|-------12----12-10-12-10----10-----------------------------------------------------------|
D|-------------------------13----13-12-13-12-10--------------10-12-------------------------|
A|--------------------------------------------------------13-------13--------10-12-13------|
E|-----------------------------------------------------------------------------------------|

[Chorus]
e|---------| --------------------------------------------|
B|---------|--------------10---10--10----10-10-10-10-----|
G|--x--x---|10--10-10-10---x----x---x-----x--x--x--x-----|
D|--x--x---|-x---x--x--x---7----7---7-----7--7--7--7-----|
A|--x--x---|-8---8--8--8---------------------------------|
E|--x--x---|---------------------------------------------|


e|-------------------------------------------------------------------------|
B|--8--10---11---11-11-11-10----------------10---10--10----10-10-10-10-----|
G|--x---x----x----x--x--x--x--10--10-10-10---x----x---x-----x--x--x--x-----|
D|--5---7----8----8--8--8--7---x---x--x--x---7----7---7-----7--7--7--7-----|
A|-----------------------------8---8--8--8---------------------------------|
E|-------------------------------------------------------------------------|


e|-----------------------------------------| x2
B|--8------10------11------11--10------10--|
G|----7-------7--------------------10------|
D|------8-------8--------------------------|
A|-----------------------------------------|
E|-----------------------------------------|



************************************

| x   Dead note
| PM  Palm mute
| /   Slide up
| b   Bend
|

************************************

            
            
Suggest correction
Creating personal tab
Creating personal tab
You can edit any tab online and save it as your Personal.

You can edit, replace or remove any tab part or add personal notes – all changes will be seen only by you.

Personal tabs can be accessed anytime from any device, even offline.
Learn more »
Give kudos to tab author, rate the tab!
1 2 3 4 5
comments
print report bad tab
guest
You may want to rate the tab now too:
select rating
Wanna post a correction for this tab? Suggest correction