Oops, an error
Loading. Please wait.

Lotus Eater bass

928 views 27 this week
1 commentread comment
1 2 3 4 5
x 6
add to favorites
×
Save as Personal and add changes to this tab that will be seen only by you. Learn more ›
×
You can save this tab as Personal to edit and correct it or add notes. All changes will be seen only by you. Learn more »
launch autoscroll
font size
0
reset
guitar tuner
edit
Autoscroll
slow
fast
+/-
esc
set tempo
stop
[Verse]
(Hold the last E up until the end of the first line of the pre-chorus then slide down.)
G|------|-7-9-------------------|-------------------7---|---------------9-7--|--------------------------|
D|------|-----7-9---9-9-7-7-9-9-|-------9-9-7-7-9-9---9-|---9-9-7-7-9-9-----9|----9-9-7-7-9-9-7---------|
A|------|---------7-------------|-10-10-----------------|-7------------------|-10---------------10-9-7\-|
E|-2/7\-|-----------------------|-----------------------|--------------------|--------------------------|

[Pre-Chorus]
(Play this during the second line of the pre-chorus.)
G|---------|
D|---------|
A|-2-2-2-2-|
E|---------|

[Chorus]
G|--------------------------------------------------|-------------------------------------------------|
D|---------------------------------------7-9-7------|--------------------------------------------7----|
A|-6-----5-5-----------------------------------10-9-|-6-----5-5-----------------------------7-10---10-|
E|---7-7-----3-3-3/7-7-7-7-7-7-7-7-7-7-7------------|---5-5-----3-3-3/7-7-7-7-7-7-7-7-7-7-7-----------|

(On the last A hold for a bit then slide down just before the verse starts.)
G|-------------------------------------------------|---------------------------------------|
D|---------------------------------------------7-5-|------------------------------------7\-|
A|-6-----5-5---------------------------------------|-6-----5-5------------------------7----|
E|---5-5-----3-3-3/7-7-7-7-7-7-7-7-7-7-7-7-7-7-----|---7-7-----3-3-3/7-7-7-7-7-7-7-10------|

[Verse]
(Hold the last E up until the end of the first line of the pre-chorus then slide down.)
G|-7-9-------------------|-------------------7---|---------------9-7--|--------------------------|
D|-----7-9---9-9-7-7-9-9-|-------9-9-7-7-9-9---9-|---9-9-7-7-9-9-----9|----9-9-7-7-9-9-7---------|
A|---------7-------------|-10-10-----------------|-7------------------|-10---------------10-9-7\-|
E|-----------------------|-----------------------|--------------------|--------------------------|

[Chorus]
G|--------------------------------------------------|-------------------------------------------------|
D|---------------------------------------7-9-7------|--------------------------------------------7----|
A|-6-----5-5-----------------------------------10-9-|-6-----5-5-----------------------------7-10---10-|
E|---7-7-----3-3-3/7-7-7-7-7-7-7-7-7-7-7------------|---5-5-----3-3-3/7-7-7-7-7-7-7-7-7-7-7-----------|

(On the last A hold for a bit then slide down just before the bridge starts.)
G|-------------------------------------------------|---------------------------------------|
D|---------------------------------------------7-5-|------------------------------------7\-|
A|-6-----5-5---------------------------------------|-6-----5-5------------------------7----|
E|---5-5-----3-3-3/7-7-7-7-7-7-7-7-7-7-7-7-7-7-----|---7-7-----3-3-3/7-7-7-7-7-7-7-10------|

[Chorus]
(Play after the bridge. The bass doesn't play during the bridge.)
G|--------------------------------------------------|-------------------------------------------------|
D|---------------------------------------7-9-7------|--------------------------------------------7----|
A|-6-----5-5-----------------------------------10-9-|-6-----5-5-----------------------------7-10---10-|
E|---7-7-----3-3-3/7-7-7-7-7-7-7-7-7-7-7------------|---5-5-----3-3-3/7-7-7-7-7-7-7-7-7-7-7-----------|

(On the last A hold for a bit then slide down just before the song ends.)
G|-------------------------------------------------|---------------------------------------|
D|---------------------------------------------7-5-|------------------------------------7\-|
A|-6-----5-5---------------------------------------|-6-----5-5------------------------7----|
E|---5-5-----3-3-3/7-7-7-7-7-7-7-7-7-7-7-7-7-7-----|---7-7-----3-3-3/7-7-7-7-7-7-7-10------|


************************************

| /   Slide up
| \   Slide down

************************************

            
            
Suggest correction
Creating personal tab
Creating personal tab
You can edit any tab online and save it as your Personal.

You can edit, replace or remove any tab part or add personal notes – all changes will be seen only by you.

Personal tabs can be accessed anytime from any device, even offline.
Learn more »
comments
print report bad tab
1 comment total.
0 reply
bobtotts12345 10 Sep 04, 2017 01:44 AM

Great job on this tab!

guest
You may want to rate the tab now too:
select rating
Wanna post a correction for this tab? Suggest correction