Oops, an error
Loading. Please wait.

Fuerza Y Fortuna bass

version 1
version 1

Whole song

124 views 3 this week
no commentswrite comment
1 2 3 4 5
3 more votes to show rating
add to favorites
×
Save as Personal and add changes to this tab that will be seen only by you. Learn more ›
×
You can save this tab as Personal to edit and correct it or add notes. All changes will be seen only by you. Learn more »
launch autoscroll
font size
0
reset
guitar tuner
edit
Autoscroll
slow
fast
+/-
esc
set tempo
stop
Bueno.. aqui mi primer aporte =) ams... como es de notar hay hartas
 tablaturas y acordes de los Fother Muckers, pero ninguna tablatura
 de bajo y queria empezar a poner las pocas que tengo con
 este temazo!
            arriba el rock chileno!!

Intro
[00.06]   [00:10]
G|-------|-------------------|
D|-------|-------------------|
A|-023---|-023--55-2-22-3-333|
E|-------|-------------------|

verso
G|--------------------------------|
D|--------------------------------|
A|-55-2-22-3-023--55-2-22-3-333---| X4
E|--------------------------------|

coro
G|----------------------------------------------|
D|--------------------------0-000000------------|
A|-1-111111111111111-0-0000---------------------| x3
E|----------------------------------------------|

cuando te emborrachas..... (despues va subiendo gradualmente)
G|----------------------------------------------------|
D|----------------------------------------------------|
A|------------------1~~---3~33333333/-----------------|
E|------------3~~~~-----------------------------------|

[02:28] - [02:40]
G|-------------------------------------------|
D|-------------------------------------------|
A|-3-3333333333333333333333333333333---------|
E|-------------------------------------------|
((ahí nose muy bien si va subiendo o se mantiene..))*

[01:29]
No me haces sentir tan bien como pensé
G|---------------------------------------|
D|---------------------------------------|
A|-5~~~~~~~~~~----------------000000000--|
E|-----------------3~~~~~~~~-------------|

El Final es lo mismo que el verso

Si falta algo haganme avisar porfa... =) !

            
            
Suggest correction
Creating personal tab
Creating personal tab
You can edit any tab online and save it as your Personal.

You can edit, replace or remove any tab part or add personal notes – all changes will be seen only by you.

Personal tabs can be accessed anytime from any device, even offline.
Learn more »
Give kudos to tab author, rate the tab!
1 2 3 4 5
comments
print report bad tab
guest
Wanna post a correction for this tab? Suggest correction