Oops, an error
Loading. Please wait.
We have an official Stacys Mom tab made by UG professional guitarists. Check out the tab »
×

Stacys Mom tab

61 views 1 this week
no commentswrite comment
1 2 3 4 5
3 more votes to show rating
add to favorites
×
Save as Personal and add changes to this tab that will be seen only by you. Learn more ›
×
You can save this tab as Personal to edit and correct it or add notes. All changes will be seen only by you. Learn more »
launch autoscroll
font size
0
reset
how to read this tab
guitar tuner
backing track
0:00
0:00
edit
Autoscroll
slow
fast
+/-
esc
set tempo
stop
About this tab version
I already submitted a powertab version of the song but since there are others who don't have a powertab software I might as well submit a text version of the song, also. This guitar transcription is a version of the studio album Welcome Interstate Managers by Fountains of Wayne and I only represents their interpretation of the song for private study, scholarship, or research only. Was this info helpful? Yes No
(Gtr 1) (E A D G B E) - 'Guitar 1'
(Gtr 2) (E A D G B E) - 'Guitar 2'
(Gtr 3) (E A D G B E) - 'Lead Guitar'

[Intro]
  E5        A5       E5             A5
 4/4
  (Gtr 1)
  PM---------------------------------------
  E E  E E  E E  E E    E E E  E E  E E E
e|---------------------|-------------------|
B|---------------------|-------------------|
G|---------------------|-------------------|
D|---------------------|-----------------9-|
A|-2-2--2-7--7-7-------|---7-7--7-7--7---7-|
E|-0-0--0-5--5-5--0-5--|-7---5--5-5--5-0---|

                      E5
 ---------------------------------------|
   E E  E E  E E  E E   E E E  E E  E E E
e|---------------------|---------------------|
B|---------------------|---------------------|
G|---------------------|---------------------|
D|---------------------|-----------------9---|
A|--2-2--2-7--7-7------|---7-7--7-7--7---7---|
E|--0-0--0-5--5-5--0-5-|-7---5--5-5--5-0-----|

[Interlude 1]
   E5     A5                          E5
  4/4
   PM--------------------------------------
   E E  E E  E E  E E   E E E  E E  E E E
e|--------------------|-------------------|
B|--------------------|-------------------|
G|--------------------|-------------------|
D|--------------------|-----------------9-|
A|-2-2--2-7--7-7------|---7-7--7-7--7---7-|
E|-0-0--0-5--5-5--0-5-|-7---5--5-5--5-0---|

          A5                            E5
 ------------------------------|    PM
   E E  E E  E E  E E   E E E  E E  E E E
e|---------------------|----------------------|
B|---------------------|----------------------|
G|---------------------|----------------------|
D|---------------------|-----------------9----|
A|--2-2--2-7--7-7------|---7-7--7-7--7---7----|
E|--0-0--0-5--5-5--0-5-|-7---5--5-5--5-0------|

   E5        A5                           E5
  4/4
   PM---------------------------------------
   E E  E E  E E  E E   E E E  E E  E E E
e|--------------------|--------------------|
B|--------------------|--------------------|
G|--------------------|--------------------|
D|--------------------|-----------------9--|
A|-2-2--2-7--7-7------|---7-7--7-7--7---7--|
E|-0-0--0-5--5-5--0-5-|-7---5--5-5--5-0----|

            A5                          E5
 ------------------------------------|
  E E  E E  E E  E E   E E E  E E  E E    Q
e|--------------------|------------------|----|
B|--------------------|------------------|----|
G|--------------------|------------------|----|
D|--------------------|------------------|----|
A|-2-2--2-7--7-7------|---7-7--7-7--7----|----|
E|-0-0--0-5--5-5--0-5-|-7---5--5-5--5-0--|----|

[Verse 1]
  E5     A5                          E5        A5                         E5
 4/4
  PM------------------------------------------------------------------------|
  E E  E E  E E  E E   E E E  E E  E E    E E  E E  E E E   E E E  E E  E E E
e|--------------------|-----------------|------------------|-------------------|
B|--------------------|-----------------|------------------|-------------------|
G|--------------------|-----------------|------------------|-------------------|
D|--------------------|-----------------|------------------|-----------------9-|
A|-2-2--2-7--7-7------|---7-7--7-7--7-2-|--2-2--7-7--7-----|---7-7--7-7--7---7-|
E|-0-0--0-5--5-5--0-5-|-7---5--5-5--5-0-|--0-0--5-5--5-0-5-|-7---5--5-5--5-0---|

  E5     A5                          E5        A5                         E5
 4/4
  PM------------------------------------------------------------------------|
  E E  E E  E E  E E   E E E  E E  E E    E E  E E  E E E E   E E  E E  E E E
e|--------------------|-----------------|--------------------|-----------------|
B|--------------------|-----------------|--------------------|-----------------|
G|--------------------|-----------------|--------------------|-----------------|
D|--------------------|-----------------|--------------------|---------------9-|
A|-2-2--2-7--7-7------|---7-7--7-7--7-2-|--2-2--7-7--7-------|-7-7--7-7--7---7-|
E|-0-0--0-5--5-5--0-5-|-7---5--5-5--5-0-|--0-0--5-5--5-0-5-7-|---5--5-5--5-0---|

  E5     A5                          E5       A5                          E5
 4/4
  PM------------------------------------------------------------------------|
  E E  E E  E E  E E   E E E  E E  E E  E   E E  E E  E E E E   E  E E  E E E
e|--------------------|--------------------|-------------------|---------------|
B|--------------------|--------------------|-------------------|---------------|
G|--------------------|--------------------|-------------------|---------------|
D|--------------------|--------------------|-------------------|-------------9-|
A|-2-2--2-7--7-7------|---7-7--7-7--7-2--2-|-2-7--7-7--------7-|-7--7-7--7---7-|
E|-0-0--0-5--5-5--0-5-|-7---5--5-5--5-0--0-|-0-5--5-5--0-5-7---|-5--5-5--5-0---|

  E5     A5                          E5       A5                          E5
 4/4
  PM------------------------------------------------------------------------|
  E E  E E  E E  E E   E E E  E E  E E  E   E E  E E  E E E E   E  E E  E E E
e|--------------------|--------------------|-------------------|---------------|
B|--------------------|--------------------|-------------------|---------------|
G|--------------------|--------------------|-------------------|---------------|
D|--------------------|--------------------|-------------------|-------------9-|
A|-2-2--2-7--7-7------|---7-7--7-7--7-2--2-|-2-7--7-7--------7-|-7--7-7--7---7-|
E|-0-0--0-5--5-5--0-5-|-7---5--5-5--5-0--0-|-0-5--5-5--0-5-7---|-5--5-5--5-0---|

[Refrain]
   G#                    A
  4/4
   E E E E  E E E E    E E E E  E E E E
e|-4-4-4-4--4-4-4-4-|--5-5-5-5--5-5-5-5-|
B|-4-4-4-4--4-4-4-4-|--5-5-5-5--5-5-5-5-|
G|-5-5-5-5--5-5-5-5-|--6-6-6-6--6-6-6-6-|
D|-6-6-6-6--6-6-6-6-|--7-7-7-7--7-7-7-7-|
A|-6-6-6-6--6-6-6-6-|--7-7-7-7--7-7-7-7-|
E|-4-4-4-4--4-4-4-4-|--5-5-5-5--5-5-5-5-|

      G#                  A
    E E E E  E E E E    E E E E  E E E Q
e|--4-4-4-4--4-4-4-4-|--5-5-5-5--5-5-5-5--|
B|--4-4-4-4--4-4-4-4-|--5-5-5-5--5-5-5-5--|
G|--5-5-5-5--5-5-5-5-|--6-6-6-6--6-6-6-6--|
D|--6-6-6-6--6-6-6-6-|--7-7-7-7--7-7-7-7--|
A|--6-6-6-6--6-6-6-6-|--7-7-7-7--7-7-7-7--|
E|--4-4-4-4--4-4-4-4-|--5-5-5-5--5-5-5-5--|

[Chorus]
   A5  Aadd2  E5         B5           C#5
  4/4
   (Gtr 1)
   E E E E  E E E E    E E E E   E  E  E  E
e|------------------|-----------------------|
B|------------------|-----------------------|
G|----------9-9-9-9-|-----------------------|
D|-7-7-7-7--9-9-9-9-|--9-9-9-9--11-11-11-11-|
A|-7-7-7-7--7-7-7-7-|--9-9-9-9--11-11-11-11-|
E|-5-5-5-5----------|--7-7-7-7---9--9--9--9-|
|
 | (Gtr 2)
 | E E E E  E E E E    E E E E   E  E  E  E
e|------------------|-----------------------|
B|-2-2--------------|-----------------------|
G|-2-2-2-2--1-1-1-1-|--4-4-4-4---6--6--6--6-|
D|-2-2-2-2--2-2-2-2-|--4-4-4-4---6--6--6--6-|
A|----------2-2-2-2-|--2-2-2-2---4--4--4--4-|
E|----------0-0-0-0-|-----------------------|

      A5         E5       B5           C#5
    E E E E  E E E E    E E E E   E  E  E  E
e|-------------------|------------------------|
B|-------------------|------------------------|
G|-----------9-9-9-9-|------------------------|
D|--7-7-7-7--9-9-9-9-|--9-9-9-9--11-11-11-11--|
A|--7-7-7-7--7-7-7-7-|--9-9-9-9--11-11-11-11--|
E|--5-5-5-5----------|--7-7-7-7---9--9--9--9--|
|
 |  E E E E  E E E E    E E E E   E  E  E  E
e|-------------------|------------------------|
B|--2-2--------------|------------------------|
G|--2-2-2-2--1-1-1-1-|--4-4-4-4---6--6--6--6--|
D|--2-2-2-2--2-2-2-2-|--4-4-4-4---6--6--6--6--|
A|-----------2-2-2-2-|--2-2-2-2---4--4--4--4--|
E|-----------0-0-0-0-|------------------------|

   A5  Aadd2E5         F#5/C        C#5            A5       B5
  4/4
   (Gtr 1)
   E E E E  E E E E     E  E  E  E   E  E  E  E    E E E E  E E E E
e|------------------|---------------------------|---------------------|
B|------------------|---------------------------|---------------------|
G|----------9-9-9-9-|---------------------------|---------------------|
D|-7-7-7-7--9-9-9-9-|--10-10-10-10--11-11-11-11-|--7-7-7-7--9-9-9-9---|
A|-7-7-7-7--7-7-7-7-|---9--9--9--9--11-11-11-11-|--7-7-7-7--9-9-9-9---|
E|-5-5-5-5----------|---8--8--8--8---9--9--9--9-|--5-5-5-5--7-7-7-7---|
|
 | (Gtr 2)
 | E E E E  E E E E     E  E  E  E   E  E  E  E    E E E E  E E E E E
e|------------------|---------------------------|---------------------|
B|-2-3--------------|---------------------------|--2-2-2-2--4-4-4-4---|
G|-2-2-2-2--1-1-1-1-|---5--5--5--5---6--6--6--6-|--2-2-2-2--4-4-4-4---|
D|-2-2-2-2--2-2-2-2-|---4--4--4--4---6--6--6--6-|--2-2-2-2--4-4-4-4---|
A|----------2-2-2-2-|---3--3--3--3---4--4--4--4-|-----------2-2-2-2---|
E|----------0-0-0-0-|---------------------------|---------------------|

[Interlude 2]
   E5     A5                          E5
  4/4
   PM--------------------------------------
   E E  E E  E E  E E   E E E  E E  E E E
e|--------------------|-------------------|
B|--------------------|-------------------|
G|--------------------|-------------------|
D|--------------------|-----------------9-|
A|-2-2--2-7--7-7------|---7-7--7-7--7---7-|
E|-0-0--0-5--5-5--0-5-|-7---5--5-5--5-0---|

         A5                          E5
 --------------------------------------|
  E E  E E  E E  E E   E E E  E E  E E E
e|--------------------|--------------------|
B|--------------------|--------------------|
G|--------------------|--------------------|
D|--------------------|-----------------9--|
A|-2-2--2-7--7-7------|---7-7--7-7--7---7--|
E|-0-0--0-5--5-5--0-5-|-7---5--5-5--5-0----|

[Verse 2]
  E5     A5                         E5       A5                          E5
 4/4
  PM-----------------------------------------------------------------------|
  E E  E E  E E E E   E E E  E E  E E  E   E E  E E  E E E E   E  E E  E E E
e|-------------------|--------------------|-------------------|----------------|
B|-------------------|--------------------|-------------------|----------------|
G|-------------------|--------------------|-------------------|----------------|
D|-------------------|--------------------|-------------------|-------------9--|
A|-2-2--2-7--7-7-----|---7-7--7-7--7-2--2-|-2-7--7-7--------7-|-7--7-7--7---7--|
E|-0-0--0-5--5-5-0-5-|-7---5--5-5--5-0--0-|-0-5--5-5--0-5-7---|-5--5-5--5-0----|

  E5     A5                          E5       A5                          E5
 4/4
  PM------------------------------------------------------------------------|
  E E  E E  E E  E E   E E E  E E  E E  E   E E  E E  E E E E   E  E E  E E E
e|--------------------|--------------------|-------------------|---------------|
B|--------------------|--------------------|-------------------|---------------|
G|--------------------|--------------------|-------------------|---------------|
D--------------------|--------------------|-------------------|-------------9-|
A|-2-2--2-7--7-7------|---7-7--7-7--7-2--2-|-2-7--7-7--------7-|-7--7-7--7---7-|
E|-0-0--0-5--5-5--0-5-|-7---5--5-5--5-0--0-|-0-5--5-5--0-5-7---|-5--5-5--5-0---|

  E5     A5                          E5       A5                          E5
 4/4
  PM------------------------------------------------------------------------|
  E E  E E  E E  E E   E E E  E E  E E  E   E E  E E  E E E E   E  E E  E E E
e|--------------------|--------------------|-------------------|---------------|
B|--------------------|--------------------|-------------------|---------------|
G|--------------------|--------------------|-------------------|---------------|
D|--------------------|--------------------|-------------------|-------------9-|
A|-2-2--2-7--7-7------|---7-7--7-7--7-2--2-|-2-7--7-7--------7-|-7--7-7--7---7-|
E|-0-0--0-5--5-5--0-5-|-7---5--5-5--5-0--0-|-0-5--5-5--0-5-7---|-5--5-5--5-0---|

 4/4
  PM------------------------------------------------------------------------|
  E E  E E  E E  E E   E E E  E E  E E  E   E E  E E  E E E E   E  E E  E E E
e|--------------------|--------------------|-------------------|---------------|
B|--------------------|--------------------|-------------------|---------------|
G|--------------------|--------------------|-------------------|---------------|
D|--------------------|--------------------|-------------------|-------------9-|
A|-2-2--2-7--7-7------|---7-7--7-7--7-2--2-|-2-7--7-7--------7-|-7--7-7--7---7-|
E|-0-0--0-5--5-5--0-5-|-7---5--5-5--5-0--0-|-0-5--5-5--0-5-7---|-5--5-5--5-0---|

[Refrain]
   Ab                  A
  4/4
   E E E E  E E E E    E E E E  E E E E
e|-4-4-4-4--4-4-4-4-|--5-5-5-5--5-5-5-5-|
B|-4-4-4-4--4-4-4-4-|--5-5-5-5--5-5-5-5-|
G|-5-5-5-5--5-5-5-5-|--6-6-6-6--6-6-6-6-|
D|-6-6-6-6--6-6-6-6-|--7-7-7-7--7-7-7-7-|
A|-6-6-6-6--6-6-6-6-|--7-7-7-7--7-7-7-7-|
E|-4-4-4-4--4-4-4-4-|--5-5-5-5--5-5-5-5-|

    Ab                  A
    E E E E  E E E E    E E E E  E E E Q
e|--4-4-4-4--4-4-4-4-|--5-5-5-5--5-5-5-5--|
B|--4-4-4-4--4-4-4-4-|--5-5-5-5--5-5-5-5--|
G|--5-5-5-5--5-5-5-5-|--6-6-6-6--6-6-6-6--|
D|--6-6-6-6--6-6-6-6-|--7-7-7-7--7-7-7-7--|
A|--6-6-6-6--6-6-6-6-|--7-7-7-7--7-7-7-7--|
E|--4-4-4-4--4-4-4-4-|--5-5-5-5--5-5-5-5--|

[Chorus]
   A5  Asus2E5          B5       C#5
  4/4
   (Gtr 1)
   E E E E  E E E E     E E E E   E  E  E  E
e|-------------------|------------------------|
B|-------------------|------------------------|
G|----------9-9-9-9--|------------------------|
D|-7-7-7-7--9-9-9-9--|--9-9-9-9--11-11-11-11--|
A|-7-7-7-7--7-7-7-7--|--9-9-9-9--11-11-11-11--|
E|-5-5-5-5-----------|--7-7-7-7---9--9--9--9--|
|
 | (Gtr 2)
 | E E E E  E E E E     E E E E   E  E  E  E
e|-------------------|------------------------|
B|-2-2---------------|------------------------|
G|-2-2-2-2--1-1-1-1--|--4-4-4-4---6--6--6--6--|
D|-2-2-2-2--2-2-2-2--|--4-4-4-4---6--6--6--6--|
A|----------2-2-2-2--|--2-2-2-2---4--4--4--4--|
E|----------0-0-0-0--|------------------------|

    A5         E5        B5       C#5
    E E E E  E E E E     E E E E   E  E  E  E
e|--------------------|------------------------|
B|--------------------|------------------------|
G|-----------9-9-9-9--|------------------------|
D|--7-7-7-7--9-9-9-9--|--9-9-9-9--11-11-11-11--|
A|--7-7-7-7--7-7-7-7--|--9-9-9-9--11-11-11-11--|
E|--5-5-5-5-----------|--7-7-7-7---9--9--9--9--|
|
 |  E E E E  E E E E     E E E E   E  E  E  E
e|--------------------|------------------------|
B|--2-2---------------|------------------------|
G|--2-2-2-2--1-1-1-1--|--4-4-4-4---6--6--6--6--|
D|--2-2-2-2--2-2-2-2--|--4-4-4-4---6--6--6--6--|
A|-----------2-2-2-2--|--2-2-2-2---4--4--4--4--|
E|-----------0-0-0-0--|------------------------|

   A5  Asus2  E5           F#5/C        C#5          A5       B5
  4/4
   (Gtr 1)
   E E E E  E E E E      E  E  E  E   E  E  E  E     E E E E  E E E E
e|-------------------|----------------------------|--------------------|
B|-------------------|----------------------------|--------------------|
G|----------9-9-9-9--|----------------------------|--------------------|
D|-7-7-7-7--9-9-9-9--|--10-10-10-10--11-11-11-11--|--7-7-7-7--9-9-9-9--|
A|-7-7-7-7--7-7-7-7--|---9--9--9--9--11-11-11-11--|--7-7-7-7--9-9-9-9--|
E|-5-5-5-5-----------|---8--8--8--8---9--9--9--9--|--5-5-5-5--7-7-7-7--|
|
 | (Gtr 2)
 | E E E E  E E E E      E  E  E  E   E  E  E  E     E E E E  E E E E
e|-------------------|----------------------------|--------------------|
B|-2-3---------------|----------------------------|--2-2-2-2--4-4-4-4--|
G|-2-2-2-2--1-1-1-1--|---5--5--5--5---6--6--6--6--|--2-2-2-2--4-4-4-4--|
D|-2-2-2-2--2-2-2-2--|---4--4--4--4---6--6--6--6--|--2-2-2-2--4-4-4-4--|
A|----------2-2-2-2--|---3--3--3--3---4--4--4--4--|-----------2-2-2-2--|
E|----------0-0-0-0--|----------------------------|--------------------|

[Guitar Solo]
   C5           G5                 D5        E5
  4/4
   (Gtr 3)
    E  E  E  E   E  E  E  E      E  E  E  E   E     Q
e|---------------------------|----------------------------|
B|---------------------------|----------------------------|
G|--5h=7--7s=9---7-----------|----------------------------|
D|------------------7p=5--7--|---7--7--5--7s==9S====5-----|
A|---------------------------|----------------------------|
E|---------------------------|----------------------------|
|
 | (Gtr 1)
 |  E  E  E  E   E  E  E  E      E  E  E  E   E  E  E  E
e|---------------------------|----------------------------|
B|---------------------------|----------------------------|
G|--------------12-12-12-12--|----------------------------|
D|-10-10-10-10--12-12-12-12--|--12-12-12-12--14-14-14-14--|
A|-10-10-10-10--10-10-10-10--|--12-12-12-12--14-14-14-14--|
E|--8--8--8--8---------------|--10-10-10-10--12-12-12-12--|
|
 | (Gtr 2)
 |  E  E  E  E   E  E  E  E      E  E  E  E   E  E  E  E
e|---------------------------|----------------------------|
B|--5--5--5--5---------------|---7--7--7--7---8--8--8--8--|
G|--5--5--5--5---4--4--4--4--|---7--7--7--7---9--9--9--9--|
D|--5--5--5--5---5--5--5--5--|---7--7--7--7---9--9--9--9--|
A|--3--3--3--3---5--5--5--5--|---5--5--5--5---7--7--7--7--|
E|---------------3--3--3--3--|----------------------------|

    C5           G5              B5
     E  E  E  E   E  E  E        E Q      Q       Q      E
e|----------------------------|-----------------------------|
B|----------------------------|-----------------------------|
G|---5h=7--7s=9---7-----------|-----------------------------|
D|-------------------7p=5-----|--7s9b10r==9b10r===9b10r==9--|
A|----------------------------|-----------------------------|
E|----------------------------|-----------------------------|
|
 |   E  E  E  E   E  E  E  E     E E    E E     E E    E E
e|----------------------------|-----------------------------|
B|----------------------------|-----------------------------|
G|---------------12-12-12-12--|-----------------------------|
D|--10-10-10-10--12-12-12-12--|--9-9----9-9-----9-9----9-9--|
A|--10-10-10-10--10-10-10-10--|--9-9----9-9-----9-9----9-9--|
E|---8--8--8--8---------------|--7-7----7-7-----7-7----7-7--|
|
 |   E  E  E  E   E  E  E  E     E E    E E     E E    E E
e|----------------------------|-----------------------------|
B|---5--5--5--5---------------|-----------------------------|
G|---5--5--5--5---4--4--4--4--|--4-4----4-4-----4-4----4-4--|
D|---5--5--5--5---5--5--5--5--|--4-4----4-4-----4-4----4-4--|
A|---3--3--3--3---5--5--5--5--|--2-2----2-2-----2-2----2-2--|
E|----------------3--3--3--3--|-----------------------------|

   C5           G5              D5           E5
  4/4
   (Gtr 3)
    E  E  E  E   E  E  E  E      E  E  E  E   E  E  Q      Q
e|---------------------------|----------------------------------|
B|---------------------------|----------------------3b5r===3b5r=|
G|--5h=7--7s=9---7-----------|----------------------4b5r===4b5r=|
D|------------------7p=5--7--|---7--7--5--7s==9S=5--------------|
A|---------------------------|----------------------------------|
E|---------------------------|----------------------------------|
|
 | (Gtr 1)
 |  E  E  E  E   E  E  E  E      E  E  E  E   E  E  E    Q
e|---------------------------|----------------------------------|
B|---------------------------|----------------------------------|
G|--------------12-12-12-12--|----------------------------------|
D|-10-10-10-10--12-12-12-12--|--12-12-12-12--14-14-14---14------|
A|-10-10-10-10--10-10-10-10--|--12-12-12-12--14-14-14---14------|
E|--8--8--8--8---------------|--10-10-10-10--12-12-12---12------|
|
 | (Gtr 2)
 |  E  E  E  E   E  E  E  E      E  E  E  E   E  E  E    Q
e|---------------------------|----------------------------------|
B|--5--5--5--5---------------|---7--7--7--7---8--8--8----8------|
G|--5--5--5--5---4--4--4--4--|---7--7--7--7---9--9--9----9------|
D|--5--5--5--5---5--5--5--5--|---7--7--7--7---9--9--9----9------|
A|--3--3--3--3---5--5--5--5--|---5--5--5--5---7--7--7----7------|
E|---------------3--3--3--3--|----------------------------------|

   C5             B5
    Q       Q     Q      Q      Q
|----------------------------------|--|
|---3b5r====3-----8b10r==8b10r==8--|--|**Jody Porter doesn't do the bend release thing 
sometimes during
|---4b5r====4-----9b10r==9b10r==9--|--|  live performance with the last pharisng part 
of the guitar solo.
|----------------------------------|--|  But he does it with a hammer-ons with the 3rd 
and 5th on the
|----------------------------------|--|  B string and the 4th and 5th on the G string.**
|----------------------------------|--|
|
 |   E    E  E  E  E    E E    E
e|----------------------------------|--|
B|----------------------------------|--|
G|----------------------------------|--|
D|--10---10-10-10--9----9-9----9----|--|
A|--10---10-10-10--9----9-9----9----|--|
E|---8----8--8--8--7----7-7----7----|--|
|
 |   E    E  E  E  E    E E    E
e|----------------------------------|--|
B|---5----5--5--5--4----4-4----4----|--|
G|---5----5--5--5--4----4-4----4----|--|
D|---5----5--5--5--4----4-4----4----|--|
A|---3----3--3--3--2----2-2----2----|--|
E|----------------------------------|--|

[Chorus]
   C5       G5          D5       E5
  4/4
   E E E E  E E E E     E E E E  E E E E
e|-------------------|--------------------|
B|-5-5-5-5-----------|--7-7-7-7--8-8-8-8--|
G|-5-5-5-5--4-4-4-4--|--7-7-7-7--9-9-9-9--|
D|-5-5-5-5--5-5-5-5--|--7-7-7-7--9-9-9-9--|
A|-3-3-3-3--5-5-5-5--|--5-5-5-5--7-7-7-7--|
E|----------3-3-3-3--|--------------------|

    C5       G5          D5       E5
    E E E E  E E E E     E E E E  E E E E
e|--------------------|--------------------|
B|--5-5-5-5-----------|--7-7-7-7--8-8-8-8--|
G|--5-5-5-5--4-4-4-4--|--7-7-7-7--9-9-9-9--|
D|--5-5-5-5--5-5-5-5--|--7-7-7-7--9-9-9-9--|
A|--3-3-3-3--5-5-5-5--|--5-5-5-5--7-7-7-7--|
E|-----------3-3-3-3--|--------------------|

   C5       G5          B5       E5          C5             B5
  4/4
   E E E E  E E E E     E E E E  E E E E     E E E E  E E E E     E E E E
e|-------------------|--------------------|--------------------|----------|
B|-5-5-5-5-----------|--4-4-4-4--8-8-8-8--|--5-5-5-5--5-5-5-4--|--4-4-4-4-|
G|-5-5-5-5--4-4-4-4--|--4-4-4-4--9-9-9-9--|--5-5-5-5--5-5-5-4--|--4-4-4-4-|
D|-5-5-5-5--5-5-5-5--|--4-4-4-4--9-9-9-9--|--5-5-5-5--5-5-5-4--|--4-4-4-4-|
A|-3-3-3-3--5-5-5-5--|--2-2-2-2--7-7-7-7--|--3-3-3-3--3-3-3-2--|--2-2-2-2-|
E|----------3-3-3-3--|--------------------|--------------------|----------|

   C5       G5          D5       E5
  4/4
   E E E E  E E E E     E E E E  E E E E
e|-------------------|--------------------|
B|-5-5-5-5-----------|--7-7-7-7--8-8-8-8--|
G|-5-5-5-5--4-4-4-4--|--7-7-7-7--9-9-9-9--|
D|-5-5-5-5--5-5-5-5--|--7-7-7-7--9-9-9-9--|
A|-3-3-3-3--5-5-5-5--|--5-5-5-5--7-7-7-7--|
E|----------3-3-3-3--|--------------------|

    C5       G5          D5       E5
    E E E E  E E E E     E E E E  E E E E
e|--------------------|--------------------|
B|--5-5-5-5-----------|--7-7-7-7--8-8-8-8--|
G|--5-5-5-5--4-4-4-4--|--7-7-7-7--9-9-9-9--|
D|--5-5-5-5--5-5-5-5--|--7-7-7-7--9-9-9-9--|
A|--3-3-3-3--5-5-5-5--|--5-5-5-5--7-7-7-7--|
E|-----------3-3-3-3--|--------------------|

   C5       G5          B5       E5          C5             B5
  4/4
   E E E E  E E E E     E E E E  E E E E     E E E E  E E E E     E E E E
e|-------------------|--------------------|--------------------|----------*|
B|-5-5-5-5-----------|--4-4-4-4--8-8-8-8--|--5-5-5-5--5-5-5-4--|--4-4-4-4-*|
G|-5-5-5-5--4-4-4-4--|--4-4-4-4--9-9-9-9--|--5-5-5-5--5-5-5-4--|--4-4-4-4-*|
D|-5-5-5-5--5-5-5-5--|--4-4-4-4--9-9-9-9--|--5-5-5-5--5-5-5-4--|--4-4-4-4-*|
A|-3-3-3-3--5-5-5-5--|--2-2-2-2--7-7-7-7--|--3-3-3-3--3-3-3-2--|--2-2-2-2-*|
E|----------3-3-3-3--|--------------------|--------------------|----------*|


*********************************************************************************************

| W - whole; 
| H - half; 
| Q - quarter; 
| E - 8th; 
| S - 16th; 
| T - 32nd; 
| X - 64th; 
| a - acciaccatura
| + - note tied to previous; 
| . - note dotted; 
| .. - note double dotted
| h   - hammer-on
| p   - pull-off
| b   - bend
| pb  - pre-bend
| r   - bend release (if no number after the r, then release immediately)
| /\  - slide into or out of (from/to "nowhere")
| s   - legato slide
| S   - shift slide
|  - natural harmonic
|[n]  - artificial harmonic
|n(n) - tapped harmonic
| ~   - vibrato
| tr  - trill
| T   - tap
| TP  - trem. picking
| PM  - palm muting
|\n/  - tremolo bar dip; n = amount to dip
| \n  - tremolo bar down
| n/  - tremolo bar up
|/n\  - tremolo bar inverted dip
| =   - hold bend; also acts as connecting device for hammers/pulls
| <>  - volume swell (louder/softer)
| x   - on rhythm slash represents muted slash
| o   - on rhythm slash represents single note slash
||o - repeat start
|o| - repeat end
|*|  - double bar (ending)
| :  - bar (freetime)
| $  - Segno
| &  - Coda

*********************************************************************************************

            
            
Suggest correction
Creating personal tab
Creating personal tab
You can edit any tab online and save it as your Personal.

You can edit, replace or remove any tab part or add personal notes – all changes will be seen only by you.

Personal tabs can be accessed anytime from any device, even offline.
Learn more »
Give kudos to tab author, rate the tab!
1 2 3 4 5
comments
print report bad tab
guest
You may want to rate the tab now too:
select rating
Wanna post a correction for this tab? Suggest correction