Oops, an error
Loading. Please wait.

Mandalay chords

version 1
version 1

Whole song

10,213 views 21 this week
no commentswrite comment
1 2 3 4 5
2 more votes to show rating
add to favorites
×
Save as Personal and add changes to this tab that will be seen only by you. Learn more ›
×
You can save this tab as Personal to edit and correct it or add notes. All changes will be seen only by you. Learn more »
launch autoscroll
font size
0
reset
transpose
0
reset
simplify chords
display chords
guitar tuner
edit
Autoscroll
slow
fast
+/-
esc
set tempo
stop
Author
Difficulty
Strumming
There is no strumming pattern for this song yet. and get +5 IQ
    __________________________________
   / Four Jacks                      /   Sangen handler om en gammel soldat, der
  / Mandalay                        /   sidder tilbage i regnfulde, kolde London
 / Oh, Marie jeg vil hjem til dig  /   og tænker længselsfuldt på sin tid som
/_________________________________/   udstationeret i Burma i Sydøstasien, og
                                     ikke mindst på pigen, han elskede der.
Musikken er oprindeligt skrevet af Oley Speaks i 1907.
Kim Larsen har også genindspillet den på "Sange fra Glemmebogen".



 Intro:
 først 4 takters marchtromme:
|   |   |   |   |


 så 3 takter akkorder:
| Bb  D7 | Eb | Cm7  F7 |


 og så disse 4 takters melodi:
 (guitar)                             (kontrabas)
|------------------|-----------------|------------------|-----------------|
|------------------|-----------------|------------------|-----------------|
|-3--3-2-----------|-----------------|-3--3-1-----------|-----------------|
|----------5---3---|-1-----------3---|----------4---3---|-1-----------3---|
|------------------|-----5---3-------|------------------|-----4---3-------|
|------------------|-----------------|------------------|-----------------|



 Versene:
| Bbm  Cø | Db  Ebm | F7 | Bbm |

| Bbm  Cø | Db  Ebm | F7 | Bbm |


| Ab | Dbm | A | Ab |

| Db | Gb | Ebm | F7 |

| F7 | F7 (break) |



 Omkvædene:
| Bb | Bb | Bb  Bo | Cm7  F7 |

| Bb  F7 | Gm7 | C7 | F7 |


| Bb  D7 | Eb | Cm7  F7 | Bb  F7 |

| Bb  F7 | Bb | Eb6  F6 | Bb |



 Mellemspillet mellem 1. og 2. Vers:
Efter mellemspillet her starter kontrabas-melodien.

|-8-8-8-8---------|-8---8-----------|-8-8-8-8---------|-6---:
|-6-6-6-6-8---8---|-6---6---8-------|-6-6-6-6-8---8---|-----:
|---------7---7---|---------7-------|---------7---7---|-6---:
|-----------------|-----------------|-----------------|-----:
|-----------------|-----------------|-----------------|-----:
|-----------------|-----------------|-----------------|-----:



***********************

 Omkvæd/Intro:
     Bb   Bo  Cm7   F7  Gm7   C7   D7   Eb  Eb6   F7
e:-----------------------------------------------------:
B:---3----3----4----6----3----1----3----4----4----6----:
G:---3----1----3----8----3----3----5----3----5----7----:
D:---3----3----5----7----3----2----4----5----5----7----:
A:---1----2----3----8----x----3----5----6----6----8----:
E:-----------------------3-----------------------------:

  Vers: [Bbmol]
    BbmDb  Ebm   F7       Ab  Dbm   A    Gb
 :----------------------------:-----------------------:
 :---2----3----6----7----6----:---4----5----5----7----:
 :---3----2----6----8----8----:---5----6----6----6----:
 :---3----3----6----8----7----:---6----6----7----8----:
 :---1----2----4----6----8----:---6----4----7----9----:
 :----------------------------:---4---------5---------:



 Digtet:
Sangen var oprindeligt et digt skrevet af R. Kipling (1865-1936), som er mest berømt
for "Junglebogen" (1894). Digtet blev genialt oversat til dansk af Kai Friis Møller.
Digtet står her i sin fulde længde, og Four Jacks bruger vers 1, 3 og 6.


  Ved den grå Moulmein Pagode, med sit blik mod havets blå,
  sidder der en Burma-pige, det er mig hun tænker på.
  Hvisker palmesuset ikke, synger templets klokker ej:
  Kom igen, soldat fra England, kom igen til Mandalay!
  Kom igen til Mandalay, ad flotillens gamle vej,
  husker du pagajens dunken fra Rangoon til Mandalay?
  Oh, den vej til Manadalay, fuld af flyvefisk i leg,
  og hvor solen brød som torden frem bag Kina-bugtens kaj!

  Gult var skørtet, grøn var huen, som min Burma-jomfru bar,
  Supiyawlat hed hun - samme navn, som Theebaws dronning har.
  På en hvid cerut hun røg, da første gang hun for mig stod,
  og hun ødsled kristne kysse på en hedensk afguds fod.
  Kun af snavs den gud bestod, kaldtes Buddha, vis og god,
  men da vi tog til at kysse, hun sin gud i stikken lod.
  Oh, den vej til Mandalay, fuld af flyvefisk i leg,
  og hvor solen brød som torden frem bag Kinabugtens kaj!

  Når hver rismark drev af tåge, og det led mod solnedgang,
  greb hun i sin ukulele, og kulla-lo-lo-lo hun sang.
  Kind mod kind vi sad og så på bugtens både, stavn ved stavn,
  så den store hathi gøre som en tømmerlæmper gavn.
  Stable teaktræ favn på favn, i den sjip-sjap-våde havn,
  hvor der var så tavst, jeg næppe turde viske hendes navn.
  Oh, den vej til Manadalay, fuld af flyvefisk i leg,
  og hvor solen brød som torden frem bag Kinabugtens kaj!

  Alt det ligger år tilbage og er milelangt fra mig,
  og fra Bank of England går der ingen bus til Mandalay.
  Hvad det gamle mandskab siger, må jeg sande højlig her:
  "Den som østen først har kaldt på kan kun trække der sit vejr!"
  Alting er mig til besvær, på den lugt af hvidløg nær,
  og det solskin og de palmer, og de klingre klokker der.
  Oh, den vej til Manadalay, fuld af flyvefisk i leg,
  og hvor solen brød som torden frem bag Kinabugtens kaj!

  Jeg er syg nu af at slide på de skidne fortovsten,
  og den fæle London-støvregn går mig gennem marv og ben.
  Vel halvhundred piger har jeg her, fra Chelsea og til Strand,
  der kun snakker om at elske, hvad jeg ikke tror, de kan.
  Skabt som køer - åh hvordan skal jeg tro, de elske kan,
  som min lille Burma-pige i det kønne grønne land.
  Oh, den vej til Manadalay, fuld af flyvefisk i leg,
  og hvor solen brød som torden frem bag Kinabugtens kaj!

  Sejl mig ud der øst for Suez, der hvor sidste mand er først,
  hvor de ti bud ikke gælder, og hvor folk kan føle tørst.
  For nu kalder templets klokker, og jeg ønsker kun, jeg lå
  ved den grå Moulmein Pagode og betragtede havets blå.
  Ak, den vej til Mandalay, hvor flotillen tog den vej,
  med de syge under solsejl, da vi gik til Mandalay!
  Oh, den vej til Manadalay, fuld af flyvefisk i leg,
  og hvor solen brød som torden frem bag Kinabugtens kaj!



------------------------------------------------------------------------------
 1st /January /15
 Just mail me at Maitinin@gmail.com with questions, comments and corrections!
------------------------------------------------------------------------------


 " Maitinin writing here - the author of this tab.

   The past 11 years, I have generated 10,318,000 views and 815 top-rated tabs for this site.
   If you want to support an eager contributor like me, check out my own site:


   _____  http://www.PlayLikeTheGreats.com  _____


   Here I will continue to upload and improve my transcriptions.

   Best regards,
   Maitinin "

            
            
Suggest correction
Creating personal tab
Creating personal tab
You can edit any tab online and save it as your Personal.

You can edit, replace or remove any tab part or add personal notes – all changes will be seen only by you.

Personal tabs can be accessed anytime from any device, even offline.
Learn more »
Give kudos to tab author, rate the tab!
1 2 3 4 5
comments
print report bad tab
guest
You may want to rate the tab now too:
select rating
Wanna post a correction for this tab? Suggest correction