Oops, an error
Loading. Please wait.

Pain tab

version 1
version 1

Whole song

Interactive

1,692 views 1 this week
3 commentsread comments
1 2 3 4 5
x 4
add to favorites
×
Save as Personal and add changes to this tab that will be seen only by you. Learn more ›
×
You can save this tab as Personal to edit and correct it or add notes. All changes will be seen only by you. Learn more »
launch autoscroll
font size
0
reset
how to read this tab
guitar tuner
edit
Autoscroll
slow
fast
+/-
esc
set tempo
stop
Four Star Mary, Pain.
 Tabbed by Darren McGuile , MartinjcMcguile.

[Intro]
e|---------------------------------------------------------------| 
B|---------------------------------------------------------------| 
G|---------------------------------------------------------------| 
D|---------------------------------------------------------------|  Repeat this x1
A|-3-3-3-3-3-3-3-5---------------5-5-5-5-5-5-5-7-----------------|
E|----------------3-3-3-3-3-3-3-5---------------1-1-1-1-1-1-1-1--|

Now play the chords C,G,Dm and F while Guitar 2 will pick the chords. Do this x3

[Verse 1]
e|---------------------------------------------------------------| 
B|---------------------------------------------------------------| 
G|------5~--------7-5-4--4-5-4-----------------------------------| 
D|-------------------------5-------------------------------------|
A|---------------------------------------------------------------| 
E|---------------------------------------------------------------| 

[Bridge]
e|---------------------------------------------------------------| 
B|---------------------------------------------------------------| 
G|----55555555-----5555--77777777--33333333----------------------| 
D|--------5555-55555555------777-------3333----------------------| 
A|---------------------------------------------------------------| 
E|---------------------------------------------------------------| 

e|---------------------------------------------------------------| 
B|---------------------------------------------------------------| 
G|----55555555-----5555-77777777---------------------------------| 
D|--------5555 55555555-----777---444444-------------------------| 
A|--------------------------------444444-------------------------| 
E|--------------------------------222202-------------------------| 

[Chorus]
e|---------------------------------------------------------------| 
B|---------------------66666666----------------------------------|
G|---55555555----------77777777----------------------------------|
D|---55555555-55555555-77777777-33333333-------------------------|
A|---33333333-55555555-55555555-33333333-------------------------|
E|------------33333333----------11111111-------------------------|

[Verse 2]
e|---------------------------------------------------------------| 
B|---------------------------------------------------------------| 
G|------5~--------7-5-4--4-5-4-----------------------------------| 
D|-------------------------5-------------------------------------|
A|---------------------------------------------------------------| 
E|---------------------------------------------------------------| 

[Bridge]
e|---------------------------------------------------------------| 
B|---------------------------------------------------------------| 
G|----55555555-----5555--77777777--33333333----------------------| 
D|--------5555-55555555------777-------3333----------------------| 
A|---------------------------------------------------------------| 
E|---------------------------------------------------------------| 

[Chorus]
e|---------------------------------------------------------------| 
B|---------------------66666666----------------------------------|
G|---55555555----------77777777----------------------------------|
D|---55555555-55555555-77777777-33333333-------------------------|
A|---33333333-55555555-55555555-33333333-------------------------|
E|------------33333333----------11111111-------------------------|

[Verse]
e|---------------------------------------------------------------| 
B|---------------------------------------------------------------| 
G|--------------------------------5555---------------------------|
D|-55555555--33333333----55555555-55553333-----------------------|
A|-55555555--33333333----55555555-33333333-----------------------|
E|-33333333--11111111-x2-33333333-----1111--x2-------------------|

e|---------------------------------------------------------------| 
B|---------------------------------------------------------------|
G|-----------------5555555---------------------------------------|
D|--5---5---5---5--5555555-33333333------------------------------|
A|--5---5---5---5--3333333-33333333------------------------------|
E|333-333-333-333----------11111111-x2---------------------------|

[Verse]
e|---------------------------------------------------------------| 
B|---------------------------------------------------------------| 
G|------5~--------7-5-4--4-5-4-----------------------------------| 
D|-------------------------5-------------------------------------|
A|---------------------------------------------------------------| 
E|---------------------------------------------------------------|

[Bridge]
e|---------------------------------------------------------------| 
B|---------------------------------------------------------------| 
G|----55555555-----5555--77777777--33333333----------------------| 
D|--------5555-55555555------777-------3333----------------------| 
A|---------------------------------------------------------------| 
E|---------------------------------------------------------------| 

[Chorus]
e|---------------------------------------------------------------| 
B|---------------------66666666----------------------------------|
G|---55555555----------77777777----------------------------------|
D|---55555555-55555555-77777777-33333333-------------------------|
A|---33333333-55555555-55555555-33333333-------------------------|
E|------------33333333----------11111111-------------------------|

e|---------------------------------------------------------------| 
B|---------------------66666666----------------------------------|
G|---55555555----------77777777----------------------------------|
D|---55555555-55555555-77777777-33333333-------------------------|
A|---33333333-55555555-55555555-33333333-------------------------|
E|------------33333333----------11111111-------------------------|




            
            
Suggest correction
Creating personal tab
Creating personal tab
You can edit any tab online and save it as your Personal.

You can edit, replace or remove any tab part or add personal notes – all changes will be seen only by you.

Personal tabs can be accessed anytime from any device, even offline.
Learn more »
comments
print report bad tab
3 comments total.
0 reply
Kayz_the_fReAk 50 Jan 20, 2002 07:00 PM

Brilliant tabbing, I love this song!!

0 reply
ixnayhombre 10 Mar 27, 2002 07:00 PM

nice tab, great song, keep em comin

0 reply
moshpitmonkey 60 May 02, 2006 08:25 AM

sounds exellent!

guest
Wanna post a correction for this tab? Suggest correction