Oops, an error
Loading. Please wait.

Beatdown In The Key Of Happy tab

version 3
version 3

Whole song

Interactive

6,359 views 12 this week
1 commentread comment
1 2 3 4 5
x 4
add to favorites
×
Save as Personal and add changes to this tab that will be seen only by you. Learn more ›
×
You can save this tab as Personal to edit and correct it or add notes. All changes will be seen only by you. Learn more »
launch autoscroll
font size
0
reset
how to read this tab
guitar tuner
edit
Autoscroll
slow
fast
+/-
esc
set tempo
stop
Beatdown in the Key of Happy
Four Year Strong
Rise or Die Trying (2007)

Beatdown in the Key of Happy: written by Dan O’Connor, Alan Day, Joe Weiss, 
Jackson Massucco, and Josh Lyford

GTR I - D Tuning "Dan O'Conner" (d,A,F,C,G,D)
GTR II - D Tuning "Alan Day" (d,A,F,C,G,D)

Intro

  GTR I
d|------------------------------------------------------------------|
A|------------------------------------------------------------------|
F|------------------------------------------------------------------|
C|------------------------------------------------------------------|
A|---------11---9-------7---------------7---------------7---6---7---|
D|--0-0-0-0---------0-0-----0-0-0-0-4-------0-0-0-0-5---------------|
 |  . . . .         . .     . . . .         . . . .
 |GTR II
d|------------------------------------------------------------------|
A|------------------------------------------------------------------|
F|------------------------------------------------------------------|
C|------------------------------------------------------------------|
A|----------------------------------------------------------2-2-2-2-|
D|----------------------------------------------------------0-0-0-0-|
                                                            . . . .

  GTR I                 PH.
d|------------------------------------------------------------------|
A|------------------------------------------------------------------|
F|------------------------------------------------------------------|
C|------------------------------------------------------------------|
A|---------11---9-------7b--------------7---------------7---6---7---|
D|------0-0---------0-0---------0-0-4-------0-0-0-0-5---------------|
 |      . .         . .         . .         . . . .
 |GTR II
d|------------------------------------------------------------------|
A|------------------------------------------------------------------|
F|------------------------------------------------------------------|
C|------------------------------------------------------------------|
A|--2-------------------------------------------------------2-2-2-2-|
D|--0-------------------------------------------------------0-0-0-0-|
    .                                                       . . . .

  GTR I                 PH.
d|------------------------------------------------------------------|
A|------------------------------------------------------------------|
F|------------------------------------------------------------------|
C|------------------------------------------------------------------|
A|---------11---9-------7b--------------7---------------7---6---7---|
D|------0-0---------0-0---------0-0-4-------0-0-0-0-5---------------|
 |      . .         . .         . .         . . . .
 |GTR II
d|------------------------------------------------------------------|
A|------------------------------------------------------------------|
F|------------------------------------------------------------------|
C|------------------------------------------------------------------|
A|--2-----------2---------------2---------------------------2-2-2-2-|
D|--0-----------0---------------0---------------------------0-0-0-0-|
    .           .               .                           . . . .

  GTR I
d|------------------------------------------------------------------|
A|------------------------------------------------------------------|
F|------------------------------------------------------------------|
C|------------------------------------------------------------------|
A|---------11---9-------7---------------7---------------7-----------|
D|--0-0-0-0---------0-0-----0-0-0-0-4-------0-0-0-0-5---------------|
 |  . . . .         . .     . . . .         . . . .
 |GTR II
d|------------------------------------------------------------------|
A|------------------------------------------------------------------|
F|------------------------------------------------------------------|
C|------------------------------------------------------------------|
A|--2---------------------------------------------------------------|
D|--0---------------------------------------------------------------|
    .

Intro 2

  GTR I                 PH.
d|------------------------------------------------------------------|
A|------------------------------------------------------------------|
F|------------------------------------------------------------------|
C|------------------------------------------------------------------|
A|---------11---9-------7b--------------7---------------7---6---7---|
D|--0-0-0-0---------0-0---------0-0-4-------0-0-0-0-5---------------|
 |  . . . .         . .         . .         . . . .
 |GTR II
d|------------------------------------------------------------------|
A|------------------------------------------------------------------|
F|------------------------------------------------------------------|
C|------------------------------------------------------------------|
A|----------2-----------2-----------2---------------2---2---2-------|
D|--0-0-0-0-0-----------0-------0-0-4-----------0-0-5---5---5-------|
    . . . .                     . .             . .                 

  GTR I                                                     PH.
d|------------------------------------------------------------------|
A|------------------------------------------------------------------|
F|------------------------------------------------------------------|
C|------------------------------------------------------------------|
A|---------11---9-------7---------------7---------------7---7~------|
D|--0-0-0-0---------0-0-----0-0-0-0-4-------0-0-0-0-5---------------|
 |  . . . .         . .     . . . .         . . . .
 |GTR II
d|------------------------------------------------------------------|
A|------------------------------------------------------------------|
F|------------------------------------------------------------------|
C|------------------------------------------------------------------|
A|----------2-----------2-----------2-------------------------------|
D|--0-0-0-0-0-----------0-------0-0-4-----------0-0-5---4---2---4---|
    . . . .                     . .             . .                 

  GTR I                    
d|------------------------------------------------------------------|
A|------------------------------------------------------------------|
F|------------------------------------------------------------------|
C|------------------------------------------------------------------|
A|---------11---9-------7---------------7---------------7---6---7---|
D|--0-0-0-0---------0-0-----0-0-0-0-4-------0-0-0-0-5---------------|
 |  . . . .         . .     . . . .         . . . .
 |GTR II
d|------------------------------------------------------------------|
A|------------------------------------------------------------------|
F|------------------------------------------------------------------|
C|------------------------------------------------------------------|
A|----------2-----------2-----------2---------------2---2---2-------|
D|--0-0-0-0-0-----------0-------0-0-4-----------0-0-5---5---5-------|
    . . . .                     . .             . .                 

  GTR I                                                     PH.
d|------------------------------------------------------------------|
A|------------------------------------------------------------------|
F|------------------------------------------------------------------|
C|------------------------------------------------------------------|
A|---------11---9-------7---------------7---------------7---7~------|
D|--0-0-0-0---------0-0-----0-0-0-0-4-------0-0-0-0-5---------------|
 |  . . . .         . .     . . . .         . . . .
 |GTR II
d|------------------------------------------------------------------|
A|------------------------------------------------------------------|
F|------------------------------------------------------------------|
C|------------------------------------------------------------------|
A|----------2-----------2-----------2-------------------------------|
D|--0-0-0-0-0-----------0-------0-0-4-----------0-0-5---4---2---4---|
    . . . .                     . .             . .                 

Intro 3

  GTR I
d|-------------------------------------------------|
A|-------------------------------------------------|
F|-------------------------------------------------|
C|-------------------------------------------------|
G|-------11--9-----7-----------7-----------7--6--7-|
D|--0--0--------0-----0--0--4-----0--0--5----------|
 |  .  .        .     .  .        .  .
 |GTR II
d|-------------------------------------------------|
A|-------------------------------------------------|
F|-------------------------------------------------|
C|--------9--7-----6--------------------------4--6-|
G|--------------------------6--7-----------7-------|
D|--0--0--------0-----0--0--------0--0--5----------|
    .  .        .     .  .        .  .

  GTR I
d|-------------------------------------------------|
A|-------------------------------------------------|
F|-------------------------------------------------|
C|-------------------------------------------------|
G|-------11--9-----7-----------7-----------7--6--7-|
D|--0--0--------0-----0--0--4-----0--0--5----------|
 |  .  .        .     .  .        .  .
 |GTR II
d|-------------------------------------------------|
A|-------------------------------------------------|
F|-------------------------------------------------|
C|--------9--7-----6~-------------------------4--6-|
G|--------------------------6--7-----------7-------|
D|--0--0--------0--------0--------0--0--5----------|
    .  .        .        .        .  .

  GTR I
d|-------------------------------------------------|
A|-------------------------------------------------|
F|-------------------------------------------------|
C|-------------------------------------------------|
G|-------11--9-----7-----------7-----------7--6--7-|
D|--0--0--------0-----0--0--4-----0--0--5----------|
 |  .  .        .     .  .        .  .
 |GTR II
d|-------------------------------------------------|
A|-------------------------------------------------|
F|-------------------------------------------------|
C|--------9--7-----6~-------------------------4--6-|
G|--------------------------6--7-----------7-------|
D|--0--0--------0--------0--------0--0--5----------|
    .  .        .        .        .  .

  GTR I
d|-------------------------------------------------|
A|-------------------------------------------------|
F|-------------------------------------------------|
C|--------------------------------------------4--6-|
G|-------11--9-----7-----------7-----------7-------|
D|--0--0--------0-----0--0--4-----0--0--5----------|
 |  .  .        .     .  .        .  .
 |GTR II
d|-------------------------------------------------|
A|-------------------------------------------------|
F|-------------------------------------------------|
C|--------9--7-----6~-------------------------4--6-|
G|--------------------------6--7-----------7-------|
D|--0--0--------0--------0--------0--0--5----------|
    .  .        .        .        .  .

  GTR I
d|-------------------------------------------------|
A|-------------------------------------------(4)---|
F|-------------------------------------------(4)---|
C|--4----------------------------------------------|
G|--4----------------------------------------------|
D|--2----------------------------------------------|
 |                                             
 |GTR II
d|-------------------------------------------------|
A|-------------------------------------------(4)---|
F|-------------------------------------------(4)---|
C|--4~---------------------------------------------|
G|-------------------------------------------------|
D|-------------------------------------------------|
                                               
Verse

  GTR I
d|-------------------------------------------------|
A|-------------------------------------------------|
F|--------------------------------------------6\---|
C|-----------------------------4--4-----6--6--6\---|
G|--7--7--7--------7--7--------2--2-----4--4--4\---|
D|--5--5--5--------5--5----------------------------|
 |  .  .  .        .  .        .  .     .  . 
 |GTR II
d|-------------------------------------------------|
A|--5--5--4--4--0--0--4--4--5--5--4--4--0--0--4--4-|
F|-------------------------------------------------|
C|-------------------------------------------------|
G|-------------------------------------------------|
D|-------------------------------------------------|
    .  .  .  .  .  .  .  .  .  .  .  .  .  .  .  .

d|-------------------------------------------------|
A|-------------------------------------------------|
F|--------------------------------------------6\---|
C|-----------------------------4--4-----6--6--6\---|
G|--7--7--7--------7--7--------2--2-----4--4--4\---|
D|--5--5--5--------5--5----------------------------|
 |  .  .  .        .  .        .  .     .  . 
 |GTR II
d|-------------------------------------------------|
A|--5--5--4--4--0--0--4--4--5--5--4--x--7h-9p-7--x-|
F|-------------------------------------------------|
C|-------------------------------------------------|
G|-------------------------------------------------|
D|-------------------------------------------------|
    .  .  .  .  .  .  .  .  .  .  .  .           .

  GTR I
d|-------------------------------------------------|
A|-------------------------------------------------|
F|--------------------------------------------6\---|
C|-----------------------------4--4-----6--6--6\---|
G|--7--7--7--------7--7--------2--2-----4--4--4\---|
D|--5--5--5--------5--5----------------------------|
 |  .  .  .        .  .        .  .     .  . 
 |GTR II
d|-------------------------------------------------|
A|--5--5--4--4--0--0--4--4--5--5--4--4--0--0--4--4-|
F|-------------------------------------------------|
C|-------------------------------------------------|
G|-------------------------------------------------|
D|-------------------------------------------------|
    .  .  .  .  .  .  .  .  .  .  .  .  .  .      

d|-------------------------------------------------|
A|-------------------------------------------------|
F|--------------------------------------------6\---|
C|-----------------------------4--4-----6--6--6\---|
G|--7--7--7--------7--7--------2--2-----4--4--4\---|
D|--5--5--5--------5--5----------------------------|
 |  .  .  .        .  .        .  .     .  . 
 |GTR II
d|-------------------------------------------------|
A|--5--5--4--4--0--0--4--4--5--5--4--x--7h-9p-7--x-|
F|-------------------------------------------------|
C|-------------------------------------------------|
G|-------------------------------------------------|
D|-------------------------------------------------|

Pre Chorus

  GTR I
d|------------------------------------------------------------------|
A|------------------------------------------------------------------|
F|------------------------------------------------------------------|
C|----------------------------------4---4---4---4---6---6---6---6---|
A|--7---7---7---7---7---7---7---7---2---2---2---2---4---4---4---4---|
D|--5---5---5---5---5---5---5---5-----------------------------------|
 |  .   .   .   .   .   .   .   .   .   .   .   .   .   .   .   .
 |GTR II
d|------------------------------------------------------------------|
A|------------------------------------------------------------------|
F|--9-------9-------9-------9-------8-------8-------8---9--11---8---|
C|--9-------9-------9-------9-------9-------9-------9---9---9---9---|
G|------------------------------------------------------------------|
D|------------------------------------------------------------------|

  GTR I
d|------------------------------------------------------------------|
A|------------------------------------------------------------------|
F|------------------------------------------------------------------|
C|----------------------------------4---4---4---4---6---6---6---6---|
A|--7---7-7-7---7---7-7-7---7---7---2---2---2---2---4---4---4---4---|
D|--5---5-5-5---5---5-5-5---5---5-----------------------------------|
 |  .   . . .   .   . . .   .   .   .   .   .   .   .   .   .   .
 |GTR II
d|------------------------------------------------------------------|
A|------------------------------------------------------------------|
F|--9-------9-------9-------9-------8-------8-------8---9--11---8---|
C|--9-------9-------9-------9-------9-------9-------9---9---9---9---|
G|------------------------------------------------------------------|
D|------------------------------------------------------------------|

  GTR I
d|------------------------------------------------------------------|
A|------------------------------------------------------------------|
F|------------------------------------------------------------------|
C|----------------------------------4---4---4---4---6---6---6-6-6---|
A|--7---7---7---7---7-7-7---7-7-7---2---2---2---2---4---4---4-4-4---|
D|--5---5---5---5---5-5-5---5-5-5-----------------------------------|
 |  .   .   .   .   . . .   . . .   .   .   .   .   .   .   . . .
 |GTR II
d|------------------------------------------------------------------|
A|------------------------------------------------------------------|
F|--9-------9-------9-------9-------8-------8-------8---9--11---8---|
C|--9-------9-------9-------9-------9-------9-------9---9---9---9---|
G|------------------------------------------------------------------|
D|------------------------------------------------------------------|

  GTR I
d|------------------------------------------------------------------|
A|------------------------------------------------------------------|
F|------------------------------------------------------------------|
C|----------------------------------4---4---4---4---6---6---6---6---|
A|--7---7-7-7---7---7-7-7---7---7---2---2---2---2---4---4---4---4---|
D|--5---5-5-5---5---5-5-5---5---5-----------------------------------|
 |  .   . . .   .   . . .   .   .   .   .   .   .   .   .   .   .
 |GTR II
d|------------------------------------------------------------------|
A|------------------------------------------------------------------|
F|--9-------9-------9-------9-------8-------8-------8---9--11---8---|
C|--9-------9-------9-------9-------9-------9-------9---9---9---9---|
G|------------------------------------------------------------------|
D|------------------------------------------------------------------|

  GTR I
d|-------------------------------------------------|
A|-------------------------------------------------|
F|-------------------------------------------------|
C|--4----------------------------------------------|
G|--4-----------------------------------------x----|
D|--2-----------------------------------------x----|
 |
 |GTR II
d|-------------------------------------------------|
A|-------------------------------------------------|
F|--9-----9-----9-----9-----8-----8-----8h-9-------|
C|--7-----7-----7-----7-----7-----7-----7----------|
G|-------------------------------------------------|
D|-------------------------------------------------|

Chorus

  GTR I
d|-------------------------------------------------|
A|-------------------------------------------------|
F|-------------------------------------------------|
C|--2--2--2--2--2--2--2--2--2--2--2--2--2--2--2--2-|
G|--2--2--2--2--2--2--2--2--2--2--2--2--2--2--2--2-|
D|--0--0--0--0--0--0--0--0--0--0--0--0--0--0--0--0-|
 |
 |GTR II
d|-------------------------------------------------|
A|-------------------------------------------------|
F|--9--9--9--9--9--9--9--9--8--8--8--8--8--9-11--8-|
C|--9--9--9--9--9--9--9--9--9--9--9--9--9--9--9--9-|
G|-------------------------------------------------|
D|-------------------------------------------------|

  GTR I
d|-------------------------------------------------|
A|-------------------------------------------------|
F|--2--2--2--2--2--2--2--2--2--2--2--2--2--2--2--2-|
C|--2--2--2--2--2--2--2--2--2--2--2--2--2--2--2--2-|
G|--0--0--0--0--0--0--0--0--0--0--0--0--0--0--0--0-|
D|-------------------------------------------------|
 |
 |GTR II
d|-------------------------------------------------|
A|-------------------------------------------------|
F|--9--9--9--9--9--9--9--9--8--8--8--8--8--9-11--8-|
C|--9--9--9--9--9--9--9--9--9--9--9--9--9--9--9--9-|
G|-------------------------------------------------|
D|-------------------------------------------------|

  GTR I
d|-------------------------------------------------|
A|-------------------------------------------------|
F|-------------------------------------------------|
C|--2--2--2--2--2--2--2--2--2--2--2--2--2--2--2--2-|
G|--2--2--2--2--2--2--2--2--2--2--2--2--2--2--2--2-|
D|--0--0--0--0--0--0--0--0--0--0--0--0--0--0--0--0-|
 |
 |GTR II
d|-------------------------------------------------|
A|-------------------------------------------------|
F|--9--9--9--9--9--9--9--9--8--8--8--8--8--9-11--8-|
C|--9--9--9--9--9--9--9--9--9--9--9--9--9--9--9--9-|
G|-------------------------------------------------|
D|-------------------------------------------------|

  GTR I
d|-------------------------------------------------|
A|-------------------------------------------------|
F|--4--4--4--4--4--4--4--4--4--4--4--4--4--4--4--4-|
C|--4--4--4--4--4--4--4--4--4--4--4--4--4--4--4--4-|
G|--2--2--2--2--2--2--2--2--2--2--2--2--2--2--2--2-|
D|-------------------------------------------------|
 |
 |GTR II
d|-------------------------------------------------|
A|-------------------------------------------------|
F|--9--9--9--9--9--9--9--9--8--8--8--8-11-11-11-11-|
C|--7--7--7--7--7--7--7--7--7--7--7--7--7--7--7--7-|
G|-------------------------------------------------|
D|-------------------------------------------------|

  GTR I
d|-------------------------------------------------|
A|-------------------------------------------------|
F|-------------------------------------------------|
C|--2--2--2--2--2--2--2--2--2--2--2--2--2--2--2--2-|
G|--2--2--2--2--2--2--2--2--2--2--2--2--2--2--2--2-|
D|--0--0--0--0--0--0--0--0--0--0--0--0--0--0--0--0-|
 |
 |GTR II
d|-------------------------------------------------|
A|-------------------------------------------------|
F|--9--9--9--9--9--9-13-13-11-11-11-11-13-13-13-13-|
C|--x--x--x--x--x--x--x--x--x--x--x--x--x--x--x--x-|
G|--7--7--7--7--7--7-11-11--9--9--9--9-11-11-11-11-|
D|-------------------------------------------------|

  GTR I
d|-------------------------------------------------|
A|-------------------------------------------------|
F|--2--2--2--2--2--2--2--2--2--2--2--2--2--2--2--2-|
C|--2--2--2--2--2--2--2--2--2--2--2--2--2--2--2--2-|
G|--0--0--0--0--0--0--0--0--0--0--0--0--0--0--0--0-|
D|-------------------------------------------------|
 |
 |GTR II
d|-------------------------------------------------|
A|-------------------------------------------------|
F|--9--9--9--9--9--9-13-13-11-11-11-11--9--9--9--8-|
C|--x--x--x--x--x--x--x--x--x--x--x--x--x--x--x--x-|
G|--7--7--7--7--7--7-11-11--9--9--9--9--7--7--7--6-|
D|-------------------------------------------------|

  GTR I
d|-------------------------------------------------|
A|-------------------------------------------------|
F|-------------------------------------------------|
C|--2--2--2--2--2--2--2--2--2--2--2--2--2--2--2--2-|
G|--2--2--2--2--2--2--2--2--2--2--2--2--2--2--2--2-|
D|--0--0--0--0--0--0--0--0--0--0--0--0--0--0--0--0-|
 |
 |GTR II
d|-------------------------------------------------|
A|-------------------------------------------------|
F|--9--9--9--9--9--9-13-13-11-11-11-11-13-13-13-13-|
C|--x--x--x--x--x--x--x--x--x--x--x--x--x--x--x--x-|
G|--7--7--7--7--7--7-11-11--9--9--9--9-11-11-11-11-|
D|-------------------------------------------------|

  GTR I
d|-------------------------------------------------|
A|-------------------------------------------------|
F|--4--4--4--4-----6-------------------------------|
C|--4--4--4--4-----6-----7-----7--7--7-------------|
G|--2--2--2--2-----4-----7-----7--7--7-----7--6--4-|
D|-----------------------5-----5--5--5-----5--4--2-|
 |                                         .  .  .
 |GTR II
d|-------------------------------------------------|
A|-------------------------------------------------|
F|-14-14-14-14----13----11-11-11-11-11----13-11--9-|
C|--x--x--x--x-----x-----x--x--x--x--x-----x--x--x-|
G|-12-12-12-12----11-----9--9--9--9--9----11--9--7-|
D|-------------------------------------------------|

Post Chorus

  GTR I
d|------------------------------------------------------------------|
A|------------------------------------------------------------------|
F|------------------------------------------------------------------|
C|------------------------------------------------------------------|
G|--2---2---2-----------2---2-----------------------2-2-2-2-2-------|
D|--0---0---0-----------0---0-----------------------0-0-0-0-0-------|
    .   .   .           .   .                       . . . . .

  GTR I
d|------------------------------------------------------------------|
A|---------------------------------------------------------(4)------|
F|---------------------------------------------------------(4)------|
C|------------------------------------------------------------------|
G|--2---2---2-----------2---2-----------------------2-2-2-2---------|
D|--0---0---0-----------0---0-----------------------0-0-0-0---------|
 |  .   .   .           .   .                       . . . .  
 |GTR II
d|------------------------------------------------------------------|
A|---------------------------------------------------------(4)------|
F|---------------------------------------------------------(4)------|
C|------------------------------------------------------------------|
G|------------------------------------------------------------------|
D|------------------------------------------------------------------|

Verse

Pre Chorus 2

  GTR I
d|------------------------------------------------------------------|
A|------------------------------------------------------------------|
F|------------------------------------------------------------------|
C|----------------------------------4---4---4---4---6---6---6---6---|
A|--7---7---7---7---7---7---7---7---2---2---2---2---4---4---4---4---|
D|--5---5---5---5---5---5---5---5-----------------------------------|
 |  .   .   .   .   .   .   .   .   .   .   .   .   .   .   .   .
 |GTR II
d|------------------------------------------------------------------|
A|------------------------------------------------------------------|
F|--9-------9-------9-------9-------8-------8-------8---9--11---8---|
C|--9-------9-------9-------9-------9-------9-------9---9---9---9---|
G|------------------------------------------------------------------|
D|------------------------------------------------------------------|

  GTR I
d|------------------------------------------------------------------|
A|------------------------------------------------------------------|
F|------------------------------------------------------------------|
C|----------------------------------4---4---4---4---6---6---6---6---|
A|--7---7-7-7---7---7-7-7---7---7---2---2---2---2---4---4---4---4---|
D|--5---5-5-5---5---5-5-5---5---5-----------------------------------|
 |  .   . . .   .   . . .   .   .   .   .   .   .   .   .   .   .
 |GTR II
d|------------------------------------------------------------------|
A|------------------------------------------------------------------|
F|--9-------9-------9-------9-------8-------8-------8---9--11---8---|
C|--9-------9-------9-------9-------9-------9-------9---9---9---9---|
G|------------------------------------------------------------------|
D|------------------------------------------------------------------|

  GTR I
d|------------------------------------------------------------------|
A|------------------------------------------------------------------|
F|------------------------------------------------------------------|
C|----------------------------------4---4---4---4---6---6---6-6-6---|
A|--7---7---7---7---7-7-7---7-7-7---2---2---2---2---4---4---4-4-4---|
D|--5---5---5---5---5-5-5---5-5-5-----------------------------------|
 |  .   .   .   .   . . .   . . .   .   .   .   .   .   .   . . .
 |GTR II
d|------------------------------------------------------------------|
A|------------------------------------------------------------------|
F|--9-------9-------9-------9-------8-------8-------8---9--11---8---|
C|--9-------9-------9-------9-------9-------9-------9---9---9---9---|
G|------------------------------------------------------------------|
D|------------------------------------------------------------------|

  GTR I
d|------------------------------------------------------------------|
A|------------------------------------------------------------------|
F|------------------------------------------------------------------|
C|----------------------------------4---4---4---4---6---6---6---6---|
A|--7---7-7-7---7---7-7-7---7---7---2---2---2---2---4---4---4---4---|
D|--5---5-5-5---5---5-5-5---5---5-----------------------------------|
 |  .   . . .   .   . . .   .   .   .   .   .   .   .   .   .   .
 |GTR II
d|------------------------------------------------------------------|
A|------------------------------------------------------------------|
F|--9-------9-------9-------9-------8-------8-------8---9--11---8---|
C|--9-------9-------9-------9-------9-------9-------9---9---9---9---|
G|------------------------------------------------------------------|
D|------------------------------------------------------------------|

  GTR I
d|------------------------------------------------------------------|
A|------------------------------------------------------------------|
F|------------------------------------------------------------------|
C|--4---------------------------------------------------------------|
G|--4-----------------------------------------------x-x-x-x-x-x-x-x-|
D|--2-----------------------------------------------x-x-x-x-x-x-x-x-|
 |
 |GTR II
d|------------------------------------------------------------------|
A|------------------------------------------------------------------|
F|--9---9-------9---9-------9-------8-------8-----------------------|
C|--7---7-------7---7-------7-------7-------7-----------------------|
G|--------------------------------------------------x-x-x-x-x-x-x-x-|
D|--------------------------------------------------x-x-x-x-x-x-x-x-|

Chorus

Breakdown

  GTR II
d|------------------------------------------------------------------|
A|------------------------------------------------------------------|
F|------------------------------------------------------------------|
C|------------------------------------------------------------------|
G|--2---2---2-----------2---2-----------------------2-2-2-2-2-------|
D|--0---0---0-----------0---0-----------------------0-0-0-0-0-------|
    .   .   .           .   .                       . . . . .

  GTR I,II
d|------------------------------------------------------------------|
A|------------------------------------------------------------------|
F|------------------------------------------------------------------|
C|------------------------------------------------------------------|
G|--2---2---2-----------2---2-----------------------2-2-2-2-2-------|
D|--0---0---0-----------0---0-----------------------0-0-0-0-0-------|
    .   .   .           .   .                       . . . . .

  GTR I,II
d|------------------------------------------------------------------|
A|------------------------------------------------------------------|
F|------------------------------------------------------------------|
C|------------------------------------------------------------------|
G|--2---2---2-----------2---2-----------------------2-2-2-2-2-------|
D|--0---0---0-----------0---0-----------------------0-0-0-0-0-------|
    .   .   .           .   .                       . . . . .

  GTR I
d|------------------------------------------------------------------|
A|------------------------------------------------------------------|
F|------------------------------------------------------------------|
C|------------------------------------------------------------------|
G|--2---2---2-----------2---2-----------------------2-2-2-2-2-------|
D|--0---0---0-----------0---0-----------------------0-0-0-0-0-------|
 |  .   .   .           .   .                       . . . . .      
 |GTR II
d|------------------------------------------------------------------|
A|------------------------------------------------------------------|
F|------------------------------------------------------------------|
C|------------------------------------------------------------------|
G|--2---2---2-----------2---2-----------------------2-2-2-2-2-2-2-2-|
D|--0---0---0-----------0---0-----------------------0-0-0-0-0-0-0-0-|
    .   .   .           .   .                       . . . . . . . .

  GTR I,II
d|------------------------------------------------------------------|
A|------------------------------------------------------------------|
F|------------------------------------------------------------------|
C|---------------------------------------------------------12\------|
G|--2---2---2-----------2---2-----------------------2-2-2--12\------|
D|--0---0---0-----------0---0-----------------------0-0-0--12\------|
    .   .   .           .   .                       . . .    

Interlude

  GTR I
d|------------------------------------------------------------------|
A|------------------------------------------------------------------|
F|------------------------------------------------------------------|
C|----------2---------------2-------------------------------2-------|
G|--2---2---2-----------2---2-----------------------2-2-2-2-2-------|
D|--0---0---0-----------0---0-----------------------0-0-0-0-0-------|
 |  .   .               .                           . . . .        
 |GTR II
d|------------------------------------------------------------------|
A|------------------------------------------------------------------|
F|--9---9---9---9---9---9--13--13--11--11--11--11--13--13--13--13---|
C|--x---x---x---x---x---x---x---x---x---x---x---x---x---x---x---x---|
G|--7---7---7---7---7---7--11--11---9---9---9---9--11--11--11--11---|
D|------------------------------------------------------------------|
                                                                   
  GTR I
d|------------------------------------------------------------------|
A|------------------------------------------------------------------|
F|------------------------------------------------------------------|
C|----------7---------------7------------------------------12\------|
G|--7---7---7-----------7---7-----------------------7-7-7--12\------|
D|--5---5---5-----------5---5-----------------------5-5-5--12\------|
 |  .   .               .                           . . .          
 |GTR II
d|------------------------------------------------------------------|
A|------------------------------------------------------------------|
F|--9---9---9---9---9---9--13--13--11--11--11--11---9---9---9---8---|
C|--x---x---x---x---x---x---x---x---x---x---x---x---x---x---x---x---|
G|--7---7---7---7---7---7--11--11---9---9---9---9---7---7---7---6---|
D|------------------------------------------------------------------|

  GTR I
d|------------------------------------------------------------------|
A|------------------------------------------------------------------|
F|------------------------------------------------------------------|
C|----------2---------------2-------------------------------2-------|
G|--2---2---2-----------2---2-----------------------2-2-2-2-2-------|
D|--0---0---0-----------0---0-----------------------0-0-0-0-0-------|
 |  .   .               .                           . . . .        
 |GTR II
d|------------------------------------------------------------------|
A|------------------------------------------------------------------|
F|--9---9---9---9---9---9--13--13--11--11--11--11--13--13--13--13---|
C|--x---x---x---x---x---x---x---x---x---x---x---x---x---x---x---x---|
G|--7---7---7---7---7---7--11--11---9---9---9---9--11--11--11--11---|
D|------------------------------------------------------------------|
                                                                   
  GTR I
d|------------------------------------------------------------------|
A|------------------------------------------------------------------|
F|------------------------------------------------------------------|
C|--9-----------9-----------9-----------7---7---7---7---7---7-------|
G|--9-----------9-----------9-----------7---7---7---7---7---7-------|
D|--7---0-0-0-0-7---0-0-0-0-7---0-0-0-0-5---5---5---5---5---5-------|
 |      . . . .     . . . .     . . . .
 |GTR II
d|------------------------------------------------------------------|
A|------------------------------------------------------------------|
F|-14-----------13---------11----------13--13--13--13---------------|
C|--x------------x----------x-----------x---x---x---x---------------|
G|-12-----------11----------9----------11--11--11--11---------------|
D|------0-0-0-0-----0-0-0-0-----0-0-0-0-----------------------------|
        . . . .     . . . .     . . . . 

Chorus

Outro

  GTR I
d|------------------------------------------------------------------|
A|------------------------------------------------------------------|
F|------------------------------------------------------------------|
C|------------------------------------------------------------------|
A|---------11---9-------7---------------7---------------7---6---7---|
D|--0-0-0-0---------0-0-----0-0-0-0-4-------0-0-0-0-5---------------|
 |  . . . .         . .     . . . .         . . . .
 |GTR II
d|------------------------------------------------------------------|
A|------------------------------------------------------------------|
F|------------------------------------------------------------------|
C|------------------------------------------------------------------|
G|--2---2---2-----------2---2-----------------------2-2-2-2-2-------|
D|--0---0---0-----------0---0-----------------------0-0-0-0-0-------|
    .   .   .           .   .                       . . . . .

  GTR I
d|------------------------------------------------------------------|
A|------------------------------------------------------------------|
F|------------------------------------------------------------------|
C|------------------------------------------------------------------|
A|---------11---9-------7---------------7---------------7---6---7---|
D|--0---0-----------0-------0---0---4-------0---0---5---------------|
 |  .   .           .       .   .           .   .  
 |GTR II
d|------------------------------------------------------------------|
A|------------------------------------------------------------------|
F|------------------------------------------------------------------|
C|------------------------------------------------------------------|
G|--2---2---2-----------2---2-----------------------2-2-2-2-2-------|
D|--0---0---0-----------0---0-----------------------0-0-0-0-0-------|
    .   .   .           .   .                       . . . . .

  GTR I                 PH.
d|------------------------------------------------------------------|
A|------------------------------------------------------------------|
F|------------------------------------------------------------------|
C|------------------------------------------------------------------|
A|---------11---9-------7b--------------7---------------7---6---7---|
D|--0-0-0-0---------0-0---------0-0-4-------0-0-0-0-5---------------|
 |  . . . .         . .         . .         . . . .
 |GTR II
d|------------------------------------------------------------------|
A|------------------------------------------------------------------|
F|------------------------------------------------------------------|
C|------------------------------------------------------------------|
G|--2---2---2-----------2---2-----------------------2-2-2-2-2-------|
D|--0---0---0-----------0---0-----------------------0-0-0-0-0-------|
    .   .   .           .   .                       . . . . .

  GTR I
d|------------------------------------------------------------------|
A|------------------------------------------------------------------|
F|------------------------------------------------------------------|
C|------------------------------------------------------------------|
A|---------11---9-------7---------------7---------------7---6---7---|
D|--0---0-----------0-------0-0-0---4-------0-0-0---5---------------|
 |  .   .           .       . . .           . . .  
 |GTR II
d|------------------------------------------------------------------|
A|------------------------------------------------------------------|
F|------------------------------------------------------------------|
C|----------9---7-------6-----------------------------------4---6---|
A|----------------------------------6---7---------------7-----------|
D|--0---0-----------0-------0-0-0-----------0-0-0---5---------------|
    .   .           .       . . .           . . .  

  GTR I,II
d|------------------------------------------------------------------|
A|------------------------------------------------------------------|
F|------------------------------------------------------------------|
C|------------------------------------------------------------------|
G|--2---2-----------------------------------------------------------|
D|--0---0-----------------------------------------------------------|
    .   .


| b  bend
| r  release bend
|trp triplet
|PH. pinch harmonic
|fbk feedback
| .  palm-mute
| /  slide up
| \  slide down
| h  hammer-on
| p  pull-off
| ~  vibrato
|(7) harmonic
| x  Mute note
===============================================================================


            
            
Suggest correction
Creating personal tab
Creating personal tab
You can edit any tab online and save it as your Personal.

You can edit, replace or remove any tab part or add personal notes – all changes will be seen only by you.

Personal tabs can be accessed anytime from any device, even offline.
Learn more »
comments
print report bad tab
1 comment total.
0 reply
chrisperrera 10 Sep 01, 2014 09:49 PM

d|------------------------------------------------------------------|
A|------------------------------------------------------------------|
F|------------------------------------------------------------------|
C|------------------------------------------------------------------|
A|---------11-----9-----7---------------767-----767-----------------|
D|--0-0-0-0-----------------0-0-0-0-4-------5-----------------------|

I don't know if this is 100% right , but it plays really nice and sounds good.

guest
You may want to rate the tab now too:
select rating
Wanna post a correction for this tab? Suggest correction