Oops, an error
Loading. Please wait.

The Take Over tab

version 1
version 1

Whole song

Interactive

3,043 views 1 this week
5 commentsread comments
1 2 3 4 5
1 last vote to show rating
add to favorites
×
Save as Personal and add changes to this tab that will be seen only by you. Learn more ›
×
You can save this tab as Personal to edit and correct it or add notes. All changes will be seen only by you. Learn more »
launch autoscroll
font size
0
reset
how to read this tab
guitar tuner
edit
Autoscroll
slow
fast
+/-
esc
set tempo
stop
----------------------------------------------------------------------------
                             The Take Over - Four Year Strong
----------------------------------------------------------------------------
Tabbed by:BrandonR
Email:Brandonr116@hotmail.com

Tuning:DADGBE

this is an intro song in to the whole cd
its really cool and really simple to play.

Bells come in, and then a siren, then followed by the drums..

g1 - listen for when you come in its light and soft its a little after drums start
e|-------------------------------------------------------------------------|
B|-------------------------------------------------------------------------|
G|--7---------------you play this only 7 times though out the whole song---|
D|----11-------------------------------------------------------------------|
A|-------0-----------------------------------------------------------------|
D|---------0---------------------------------------------------------------|
g2
e|-------------------------------------------------------------------------|
B|-----follow rythem-------------------------------------------------------|
G|-------------------------------------------------------------------------|
D|-0-0-00000-0-0-----------------------------------------------------------|
A|-0-0-00000-0-0-----------------------------------------------------------|
D|-0-0-00000-0-0-----------------------------------------------------------|

like i stated earlier this is a really easy intro and its fun to play and sing
 to. i think so anyway

| /  slide up
| \  slide down
| h  hammer-on
| p  pull-off
| ~  vibrato
| +  harmonic
| x  Mute note
============================================================================

            
            
Suggest correction
Creating personal tab
Creating personal tab
You can edit any tab online and save it as your Personal.

You can edit, replace or remove any tab part or add personal notes – all changes will be seen only by you.

Personal tabs can be accessed anytime from any device, even offline.
Learn more »
Give kudos to tab author, rate the tab!
1 2 3 4 5
comments
print report bad tab
5 comments total. Showing first comments.
0 reply
mattxkillyou 10 Jan 17, 2008 03:52 PM

completely wrong, listen to it harder buddy.


upstroke
e
b
g 7
d 11
a 0
d 0

+1 reply
mattxkillyou 10 Jan 17, 2008 03:54 PM

****ing
format


upstroke
e---------------
b---------------
g--7------------
d----11---------
a-------0-------
d-----
----0-----

0 reply
brandonr116 186 Jan 19, 2008 09:16 AM

you are correct. i'll update it. thanks

guest
You may want to rate the tab now too:
select rating
Wanna post a correction for this tab? Suggest correction