Oops, an error
Loading. Please wait.

27Th Ave Shuffle tab

version 1
version 1

Whole song

Interactive

4,467 views 3 this week
2 commentsread comments
1 2 3 4 5
x 5
add to favorites
×
Save as Personal and add changes to this tab that will be seen only by you. Learn more ›
×
You can save this tab as Personal to edit and correct it or add notes. All changes will be seen only by you. Learn more »
launch autoscroll
font size
0
reset
how to read this tab
guitar tuner
edit
Autoscroll
slow
fast
+/-
esc
set tempo
stop
Author
-------------------------------------------------------------------------------
                             27th Ave Shuffle - Foxboro Hot Tubs
-------------------------------------------------------------------------------
Tabbed by: Jade_Simone
Email: cyanide_sun616@hotmail.com

Tuning: Standard

I'm pretty sure this is correct cause I inverted the song to hear the guitar better. 
parts in the solo may be off since its a laid back song.

Intro x4 Verse x8
e|---------------|
B|---------------|
G|---------------|
D|---------------|
A|-5-5-3-55------|
E|-3-3-1-33------|


Chorus
e|-------------------------------------------------------------------------------------|
B|-------------------------------------------------------------------------------------|
G|-------------------------------------------------------------------------------------|
D|-5-5-3-55--5-5-3-55--5-5-3-55--5-5-3-55----------------------------------------------|
A|-3-3-1-33--3-3-1-33--3-3-1-33--3-3-1-33--5-5-3-55--5-5-3-55--5-5-3-55--5-5-3-55------|
E|-----------------------------------------3-3-1-33--3-3-1-33--3-3-1-33--3-3-1-33------|

e|---------------------------------------------------------------------------|
B|---------------------------------------------------------------------------|
G|---------------------------------------------------------------------------|
D|--77777777-5\--------------------------------------------------------------|
A|--55555555-3\--------------------------------------------------------------|
E|---------------------------------------------------------------------------|

Post chorus (played first time through)
e|---------------------------------------------------------------------------|
B|---------------------------------------------------------------------------|
G|--6b-6b-6b-4---------------------------------------------------------------|
D|---------------------------------------------------------------------------|
A|---------------------------------------------------------------------------|
E|---------------------------------------------------------------------------|
(bends are half bends)

Solo
e|---------------------------------------------------------------------------|
B|-----------------------------------------5(?)------------------------------|
G|-6b-6b-6b-6b6-4444-5555---6b6b6b-6b6b-6b---6b-6b6-4------------------------|
D|---------------------------------------------------------------------------|
A|---------------------------------------------------------------------------|
E|---------------------------------------------------------------------------|

e|---------------------------------------------------------------------------|
B|-55-66-88-66-55-5h6-5h6-6-5~-----------------------------------------------|
G|-------------------------------6b6b6b-4-6b6b6b6-4-4444---------------------|
D|-------------------------------------------------------77777777-/\-5\------|
A|-------------------------------------------------------55555555-/\-3\------|
E|---------------------------------------------------------------------------|

e|---------------------------------------------------------------------------|
B|---------------------------------------------------------------------------|
G|--6b--6b--6b--6b-----------------------------------------------------------|
D|---------------------------------------------------------------------------|
A|-----------------5~--(hold-throughout-interlude)---------------------------|
E|-----------------3~--------------------------------------------------------|


End Riff
e|---------------------------------------------------------------------------------------|
B|---------------------------------------------------------------------------------------|
G|--6b-6b-6b-6b6-4--------------------------------------------------6b(hold-and-vibrato)-|
D|-----------------5---------------------------------------------------------------------|
A|---------------------------------------------------------------------------------------|
E|------------------------12\--12\--12\--12\12\-12/-12\--(fades)--12\--------------------|


Things are so much harder now
no matter how i try
Junkyard days and toxic waste
still love is on my mind

I can see the ledge now
Golden Gate is falling from behind
(falling from behind) (?)
well if you call this living,
I just wanna hang my head and cry

Voices in my head
telling me that I am lost
Pills and alcohol
are making me a lost cause

I can see the ledge now
Golden Gate is falling from behind
(falling from behind) (?)
Well if you call this living,
I just wanna hang my head and cry

repeat chorus

| /  slide up
| \  slide down
| h  hammer-on
| p  pull-off
| ~  vibrato
| +  harmonic
| x  Mute note
| b  bend
===============================================================================

            
            
Suggest correction
Creating personal tab
Creating personal tab
You can edit any tab online and save it as your Personal.

You can edit, replace or remove any tab part or add personal notes – all changes will be seen only by you.

Personal tabs can be accessed anytime from any device, even offline.
Learn more »
comments
print report bad tab
2 comments total.
0 reply
guitarheroII 191 Jun 30, 2008 08:54 AM

on this part:
Intro x4 Verse x8
e|---------------|
B|---------------|
G|---------------|
D|---------------|
A|-5-5-3-55------|
E|-3-3-1-33------|

should be:

Intro x4 Verse x8
e|---------------|
B|-----------------|
G|-----------------|
D|-----------------|
A|-5-5-5-3-555-----|
E|-3-3-3-1-333-----|

but solo is righjt!!!!!!!!!!!! Great Tab 5 *****

0 reply
EpiTelePhone 21 Dec 03, 2009 06:20 AM

Bass Interlude bit:

G:----------------------------------------
D:--5-3/4/5-3-0-----5-3/4/5-5-3-----------
A:--------------3-------------------1-----
E:-3--------------3-------------1h3-------

G:----------------------------3-----------
D:--5-3/4/5-3-0-----5-3/4/5-5---5---------
A:--------------3----------------------1--
E:-3--------------3----------------1h3----

I Think Mike Plays this in the verse also

guest
You may want to rate the tab now too:
select rating
Wanna post a correction for this tab? Suggest correction