Oops, an error
Loading. Please wait.

Broadway tab

version 1
version 1

Whole song

6,051 views 1 this week
5 commentsread comments
1 2 3 4 5
1 last vote to show rating
add to favorites
×
Save as Personal and add changes to this tab that will be seen only by you. Learn more ›
×
You can save this tab as Personal to edit and correct it or add notes. All changes will be seen only by you. Learn more »
launch autoscroll
font size
0
reset
how to read this tab
guitar tuner
edit
Autoscroll
slow
fast
+/-
esc
set tempo
stop
Author
-------------------------------------------------------------------------------
                            Broadway - Foxboro Hot Tubs
-------------------------------------------------------------------------------
Tabbed by: Mr-Softy
Email: mrsofty@f2s.com
Notes: Im suprised this hasn't been tabbed out yet :O so i thought i'd give it a go
       I worked this out by ear but it sounds 100% correct to me, If not then please
       email me or submit your own tab with suggestions/corrections.

Tuning: Standard

Main Riff:

e|---------------------------------------|
B|---------------------------------------|
G|---------------------------------------|
D|--7----7--5--2--5--7----7--5--0--5--7--|
A|--7----7--5--2--5--7----7--5--0--5--7--|
E|--5----5--3--0--3--5----5--3--0--3--5--|



Main Riff #2: (linked with the first riff)

e|---------------------------------------|
B|---------------------------------------|
G|--7----7--5--2--5--7----7--5--0--5-----|
D|--7----7--5--2--5--7----7--5--0--5-----|
A|--5----5--3--0--3--5----5--3--0--3-----|
E|---------------------------------------|



Chorus
        EM          D      A       EM
e|---------------2-2-2-2-----------------------------------------------------|
B|---------------3-3-3-3--2-2------------------------------------------------|
G|---------------2-2-2-2--2-2------------------------------------------------|
D|--2-2-2-2-2-2-----------2-2--2-2-2-2-2-2-----------------------------------|
A|--2-2-2-2-2-2----------------2-2-2-2-2-2-----------------------------------|
E|--0-0-0-0-0-0----------------0-0-0-0-0-0-----------------------------------|




SOLO:
Not known yet... whoever can work it out email me plz and ill update this.




SONG ORDER:
Main Riff #1 x 8 (intro)
Main Riff #1 x 3
Main Riff #2 x 3
Main Riff #1 x 3
Main Riff #2 x 3
Chorus x4
(REPEAT)



LYRICS:
I, I'm just killing time now
I do it all the time now
and it's killing me

I, I polish off the bottle
I'm throwing down the throttle
Drinking gasoline

Now I'm on my way
Driving down Broadway
Wasting all my time
And I won't be late
Cause I'm on the brake(?)
So don't hesitate
Never make it out
And it's killing me

Do, Do you get the feeling?
That you've been bleeded (?)
Cause now you're bleeding me

You, You're spilling all the wine now
On Hollywood and Vine now
It's Lushotology

Now I'm on my way
Driving down Broadway
Wasting all my time
And I won't be late
Cause I'm on the brake(?)
So don't hesitate
Never make it out
and it's killing me

and it's killing me

(GUITAR SOLO)

I, I'm just killing time now
I do it all the time now
and it's killing me

I, I polish off the bottle
I'm throwing down the throttle
Drinking gasoline

Now I'm on my way
Driving down Broadway
Wasting all my time
And I won't be late
Cause I'm on the brake
So don't hesitate
Never make it out
And it's killing me (x3)


| /  slide up
| \  slide down
| h  hammer-on
| p  pull-off
| ~  vibrato
| +  harmonic
| x  Mute note
===============================================================================

            
            
Suggest correction
Creating personal tab
Creating personal tab
You can edit any tab online and save it as your Personal.

You can edit, replace or remove any tab part or add personal notes – all changes will be seen only by you.

Personal tabs can be accessed anytime from any device, even offline.
Learn more »
Give kudos to tab author, rate the tab!
1 2 3 4 5
comments
print report bad tab
5 comments total. Showing first comments.
+3 reply
steel91488 10 May 21, 2008 08:40 PM

I think the main riff goes like this instead:

e|---------------------------------------|
B|---------------------------------------|
G|---------------------------------------|
D|--7----7--5--2--5--7----7--5--2--5--7--|
A|--7----7--5--2--5--7----7--5--2--5--7--|
E|--5----5--3--0--3--5----5--3--0--3--5--|

and then Main Riff #2: (linked with the first riff)

e|---------------------------------------|
B|---------------------------------------|
G|--7----7--5--2--5--7----7--5--2--5-----|
D|--7----7--5--2--5--7----7--5--2--5-----|
A|--5----5--3--0--3--5----5--3--0--3-----|
E|---------------------------------------|

I think it should be an Em and an A instead of open strings or w/e

0 reply
steel91488 10 May 21, 2008 08:41 PM

I think the main riff goes like this instead:

e|---------------------------------------|
B|---------------------------------------|
G|---------------------------------------|
D|--7----7--5--2--5--7----7--5--2--5--7--|
A|--7----7--5--2--5--7----7--5--2--5--7--|
E|--5----5--3--0--3--5----5--3--0--3--5--|

and then Main Riff #2: (linked with the first riff)

e|---------------------------------------|
B|---------------------------------------|
G|--7----7--5--2--5--7----7--5--2--5-----|
D|--7----7--5--2--5--7----7--5--2--5-----|
A|--5----5--3--0--3--5----5--3--0--3-----|
E|---------------------------------------|

I think it should be an Em and an A instead of open strings or w/e

0 reply
MasterKeks 52 Jun 07, 2008 02:07 AM

steel91488 is right, I think. But good tab, though!

guest
You may want to rate the tab now too:
select rating
Wanna post a correction for this tab? Suggest correction