Oops, an error
Loading. Please wait.

Shes A Saint Not A Celebrity tab

version 1
version 1

Whole song

Interactive

5,001 views 1 this week
6 commentsread comments
1 2 3 4 5
x 4
add to favorites
×
Save as Personal and add changes to this tab that will be seen only by you. Learn more ›
×
You can save this tab as Personal to edit and correct it or add notes. All changes will be seen only by you. Learn more »
launch autoscroll
font size
0
reset
how to read this tab
guitar tuner
edit
Autoscroll
slow
fast
+/-
esc
set tempo
stop
Author
Difficulty
Artist: Foxboro Hot Tubs
Song: She's A Saint Not A Celebrity
Foxborohottubs.com

intro

|--------------------------------------------------------|
|--------------------------------------------------------|
|-4--9-9-9--9-9--11--4-4-4--4-4--4--9-9-9--9-9--11-------|
|-4--9-9-9--9-9--11--4-4-4--4-4--4--9-9-9--9-9--11--9-9-9|
|-2--7-7-7--7-7---9--2-2-2--2-2--2--7-7-7--7-7---9--9-9-9|
|---------------------------------------------------7-7-7|

verse

|---------------------------------|
|---------------------------------|
|-------------------------------9-|
|-8--9-9-9--8--9-9-9--8--9-9-9--9-|
|-8--9-9-9--8--9-9-9--8--9-9-9--7-|
|-6--7-7-7--6--7-7-7--6--7-7-7----| (x2)
  *  * * *  *  * * *  *  * * *|

|---------------------------------------------------------
|---------------------------------------------------------
|-4--9-9-9--9-9--11--4-4-4--4-4--4--9-9-9--9-9--11--------
|-4--9-9-9--9-9--11--4-4-4--4-4--4--9-9-9--9-9--11--9-9-9-
|-2--7-7-7--7-7---9--2-2-2--2-2--2--7-7-7--7-7---9--9-9-9-
|---------------------------------------------------7-7-7-

-----------------------------------------------------------|
-----------------------------------------------------------|
-4-4-4--9-9-9--9-9--11-------------------------------------|
-4-4-4--9-9-9--9-9--11--9-9-9--9-9--9--2-2-2--2-2--4--9-9-9|
-2-2-2--7-7-7--7-7---9--9-9-9--9-9--9--2-2-2--2-2--4--9-9-9|
------------------------7-7-7--7-7--7--0-0-0--0-0--2--7-7-7|

chorus:

|------------------------------------
|------------------------------------
|------------------------------------
|-7-7-7--7-7-7-7-7--9-9--9-9-9-9-9-9-
|-7-7-7--7-7-7-7-7--9-9--9-9-9-9-9-9-
|-5-5-5--5-5-5-5-5--7-7--7-7-7-7-7-7-(x3)

Guitar 2:
(after playing the first part of the chorus twice)

|-5-5--5-5--^5--5-5-5-|
|-5-5--5-5------5-5-5-|
|---------------------|
|---------------------|
|---------------------|
|---------------------|

Guitar 1:

----------------------------------------|
----------------------------------------|
----------------------------------------|
-7-7-7--7-7-7-7-7--4--4-4-4-4-4---------|
-7-7-7--7-7-7-7-7--4--4-4-4-4-4---------|
-5-5-5--5-5-5-5-5--2--2-2-2-2-2---------|

verse

|---------------------------------|
|---------------------------------|
|-------------------------------9-|
|-8--9-9-9--8--9-9-9--8--9-9-9--9-|
|-8--9-9-9--8--9-9-9--8--9-9-9--7-|
|-6--7-7-7--6--7-7-7--6--7-7-7----| (x2)
  *  * * *  *  * * *  *  * * *|

|-----------------------------------------------------------|
|-----------------------------------------------------------|
|-4-4-4--9-9-9--9-9--11-------------------------------------|
|-4-4-4--9-9-9--9-9--11--9-9-9--9-9--9--2-2-2--2-2--4--9-9-9|
|-2-2-2--7-7-7--7-7---9--9-9-9--9-9--9--2-2-2--2-2--4--9-9-9|
|------------------------7-7-7--7-7--7--0-0-0--0-0--2--7-7-7| (x2)

chorus:

|------------------------------------
|------------------------------------
|------------------------------------
|-7-7-7--7-7-7-7-7--9-9--9-9-9-9-9-9-
|-7-7-7--7-7-7-7-7--9-9--9-9-9-9-9-9-
|-5-5-5--5-5-5-5-5--7-7--7-7-7-7-7-7-(x3)

Guitar 2:
(after playing the chorus once)

|-5-5--5-5--^5--5-5-5-|
|-5-5--5-5------5-5-5-|
|---------------------|
|---------------------|
|---------------------|
|---------------------|

Guitar 1:

----------------------------------------|
----------------------------------------|
----------------------------------------|
-7-7-7--7-7-7-7-7--4--4-4-4-4-4---------|
-7-7-7--7-7-7-7-7--4--4-4-4-4-4---------|
-5-5-5--5-5-5-5-5--2--2-2-2-2-2---------|

verse:

|---------------------------------|
|---------------------------------|
|-------------------------------9-|
|-8--9-9-9--8--9-9-9--8--9-9-9--9-|
|-8--9-9-9--8--9-9-9--8--9-9-9--7-|
|-6--7-7-7--6--7-7-7--6--7-7-7----| (x2)
  *  * * *  *  * * *  *  * * *

Guitar 2: (not 100% sure)

|-7-5--7-7--7-7--7-7--7-7--7-7----|
|-5-5--5-5--5-5--5-5--5-5--5-5----|
|---------------------------------|
|---------------------------------|
|---------------------------------|
|---------------------------------|

solo:

guitar 1:

(no idea, if you know it please post it up)

Guitar2:

-----------------------------|
-----------------------------|
-----------------------------|
-9-9-9--2-2-2--2-2--4--9-9-9-|
-9-9-9--2-2-2--2-2--4--9-9-9-|
-7-7-7--0-0-0--0-0--2--7-7-7-| (x4)

verse:

|-----------------------------------------------------------|
|-----------------------------------------------------------|
|-4-4-4--9-9-9--9-9--11-------------------------------------|
|-4-4-4--9-9-9--9-9--11--9-9-9--9-9--9--2-2-2--2-2--4--9-9-9|
|-2-2-2--7-7-7--7-7---9--9-9-9--9-9--9--2-2-2--2-2--4--9-9-9|
|------------------------7-7-7--7-7--7--0-0-0--0-0--2--7-7-7| (x2)


chorus:

|------------------------------------
|------------------------------------
|------------------------------------
|-7-7-7--7-7-7-7-7--9-9--9-9-9-9-9-9-
|-7-7-7--7-7-7-7-7--9-9--9-9-9-9-9-9-
|-5-5-5--5-5-5-5-5--7-7--7-7-7-7-7-7-(x3)

Guitar 2:
(after playing the chorus once)

|-5-5--5-5--^5--5-5-5-|
|-5-5--5-5------5-5-5-|
|---------------------|
|---------------------|
|---------------------|
|---------------------|

Guitar 1:

----------------------------------------|
----------------------------------------|
----------------------------------------|
-7-7-7--7-7-7-7-7--4--4-4-4-4-4---------|
-7-7-7--7-7-7-7-7--4--4-4-4-4-4---------|
-5-5-5--5-5-5-5-5--2--2-2-2-2-2---------|

outro:

|---------------------------------|
|---------------------------------|
|-------------------------------9-|
|-8--9-9-9--8--9-9-9--8--9-9-9--9-|
|-8--9-9-9--8--9-9-9--8--9-9-9--7-|
|-6--7-7-7--6--7-7-7--6--7-7-7----| (x4)
  *  * * *  *  * * *  *  * * *

Love this song <3 ..enjoy!

punkpsycho
sawsan11@gmail.com

            
            
Suggest correction
Creating personal tab
Creating personal tab
You can edit any tab online and save it as your Personal.

You can edit, replace or remove any tab part or add personal notes – all changes will be seen only by you.

Personal tabs can be accessed anytime from any device, even offline.
Learn more »
comments
print report bad tab
6 comments total. Showing first comments.
+3 reply
punkpsycho 156 Dec 13, 2007 03:51 AM

you can substitute the

---
---
-4-
-4-
-2-
---
with
---
---
---
-9-
-9-
-7-



but i vocal cut the song to hear the backtrack and im pretty sure this is how they play it

+1 reply
steel91488 10 Apr 21, 2008 02:23 PM

I've been trying to figure out the solo and I think it might go something like this:

-5/777-777-5/777-7777------------555557777-577-5777-10101010107777
-5/777-777-5/777-7777------------555557777-577-5777-10101010107777
---------------------999999444444---------------------------------
----------------------(not sure)-----------------(Those are)------
---------------------(about part)------------------(tens)---------
-----------------------(above)------------------------------------

I ran out of room above, but this part continues without a break:

--7-10-9-10--
--7-10-9-10--
-------------
-------------
-------------
-------------

I know its not perfect, but its the best I could do and it sounds decent to me.

+1 reply
steel91488 10 Apr 21, 2008 02:24 PM

I've been trying to figure out the solo and I think it might go something like this:

-5/777-777-5/777-7777------------555557777-577-5777-10101010107777
-5/777-777-5/777-7777------------555557777-577-5777-10101010107777
---------------------999999444444---------------------------------
----------------------(not sure)-----------------(Those are)------
---------------------(about part)------------------(tens)---------
-----------------------(above)------------------------------------

I ran out of room above, but this part continues without a break:

--7-10-9-10--
--7-10-9-10--
-------------
-------------
-------------
-------------

I know its not perfect, but its the best I could do and it sounds decent to me.

guest
You may want to rate the tab now too:
select rating
Wanna post a correction for this tab? Suggest correction