Oops, an error
Loading. Please wait.
We have an official The Pedestrian tab made by UG professional guitarists. Check out the tab »
×
3,066 views 1 this week
1 commentread comment
1 2 3 4 5
x 5
add to favorites
×
Save as Personal and add changes to this tab that will be seen only by you. Learn more ›
×
You can save this tab as Personal to edit and correct it or add notes. All changes will be seen only by you. Learn more »
launch autoscroll
font size
0
reset
guitar tuner
edit
Autoscroll
slow
fast
+/-
esc
set tempo
stop
Difficulty
Tabbed By : Amina
e-mail: aminascott1@yahoo.com

Tuning:Standard

I didn't see a tab for this so I did it when I was bored.I'm 99.5% sure that this is 
played it like this and it sound great.I had to split the chorus into 2 sections because of 
issues.For fills,its in the key of G (G A B C D E F# G).For rhythm,listen to the song.ENJOY!! :)


Intro:
G|-0-------------------------------------------------------|
D|---------------------------------5--4--2--0--------------|
A|-------------------3--3---5-5-5--------------3--2--5-5-5-|
E|----3--3--3--3--3----------------------------------------|

Verse 1:
"I don't have a reason to be a misfit..."

G|---------------------------------------------------------|
D|---------------------------------5--4--2--0--------------|
A|-------------------3--3---5-5-5--------------3--2--5-5-5-|
E|----3--3--3--3--3----------------------------------------|


"When it's my time then I will let you know.."
G|---------------------------------------------------|
D|---------------------------------------------------|
A|-------0----3--3--5-5-5--------------3--3--5-5-5---|
E|-0--3----3---------------3--3--3--3----------------|

Verse 2:
"It don't take a genius to be an idiot..."

G|---------------------------------------------------------|
D|---------------------------------5--4--2--0--------------|
A|-------------------3--3---5-5-5--------------3--2--5-5-5-|
E|----3--3--3--3--3----------------------------------------|

"Well it's my time and.."

G|---------------------------------------------------|
D|---------------------------------------------------|
A|-------0----3--3--5-5-5------------------0--1--2---|
E|-0--3----3---------------3--3--3-3-3--3------------|


Chorus prt.1:
"Pedestrian"

G|---------------------------------------------|
D|---------------------------------------------|
A|-3--3--3--3-------------3--3--3--3-------3---|
E|-------------3--3--3--3------------3--3----3-|


Chorus prt.2:

G|-----------------------------------------------------|
D|-----------------------------------------------------|
A|-3--3--3--3--/10--10--10--10--\0--0--0--0--5---5-----|
E|---------------------------------------------------2-|

Verse 3:
"I don't have a reason.."

G|---------------------------------------------------------|
D|---------------------------------5--4--2--0--------------|
A|-------------------3--3---5-5-5--------------3--2--5-5-5-|
E|----3--3--3--3--3----------------------------------------|

"Well it's my time and.."

G|---------------------------------------------------|
D|---------------------------------------------------|
A|-------0----3--3--5-5-5---------------3--3--5-5-5--|
E|-0--3----3---------------3--3---3--3---------------|


Guitar solo:
Basically,you just play all of verse 1 and then all of verse 2.

G|---------------------------------------------------------|
D|---------------------------------5--4--2--0--------------|
A|-------------------3--3---5-5-5--------------3--2--5-5-5-|
E|----3--3--3--3--3----------------------------------------|

G|---------------------------------------------------|
D|---------------------------------------------------|
A|-------0----3--3--5-5-5--------------3--3--5-5-5---|
E|-0--3----3---------------3--3--3--3----------------|

G|---------------------------------------------------------|
D|---------------------------------5--4--2--0--------------|
A|-------------------3--3---5-5-5--------------3--2--5-5-5-|
E|----3--3--3--3--3----------------------------------------|

G|---------------------------------------------------|
D|---------------------------------------------------|
A|-------0----3--3--5-5-5------------------0--1--2---|
E|-0--3----3---------------3--3--3-3-3--3------------|

Chorus prt.1:
"Pedestrian"

G|---------------------------------------------|
D|---------------------------------------------|
A|-3--3--3--3-------------3--3--3--3-------3---|
E|-------------3--3--3--3------------3--3----3-|


Chorus prt.2:

G|-----------------------------------------------------|
D|-----------------------------------------------------|
A|-3--3--3--3--/10--10--10--10--\0--0--0--0--5---5-----|
E|---------------------------------------------------2-|

Verse 4:
"I don't have an answer..."

G|---------------------------------------------------------|
D|---------------------------------5--4--2--0--------------|
A|-------------------3--3---5-5-5--------------3--2--5-5-5-|
E|----3--3--3--3--3----------------------------------------|


"I take my time.."

G|--------------------------------------------------------------|\
D|--------------------------------------------------------------|\ \
A|-------0----3----5---------------------3--3--5-5-5---| / play-|\ 2x
E|-0--3----3-----------2-----3--3--3--3-------------------------|\


Ending:

G|-----------------|
D|-----------------|
A|-------3-----5~--|
E|-0~--------------|


| /  slide up
| \  slide down
| h  hammer-on
| p  pull-off
| ~  vibrato
| +  harmonic
| x  Mute note

            
            
Suggest correction
Creating personal tab
Creating personal tab
You can edit any tab online and save it as your Personal.

You can edit, replace or remove any tab part or add personal notes – all changes will be seen only by you.

Personal tabs can be accessed anytime from any device, even offline.
Learn more »
comments
print report bad tab
1 comment total.
0 reply
foster.getagrip 143 Oct 15, 2008 05:37 PM

Thank you for not screwing up good songs with bad tabs. This is great!

guest
Wanna post a correction for this tab? Suggest correction