Oops, an error
Loading. Please wait.

Quietus tab

by Foxing
661 views 12 this week
no commentswrite comment
1 2 3 4 5
x 3
add to favorites
×
Save as Personal and add changes to this tab that will be seen only by you. Learn more ›
×
You can save this tab as Personal to edit and correct it or add notes. All changes will be seen only by you. Learn more »
launch autoscroll
font size
0
reset
how to read this tab
guitar tuner
edit
Autoscroll
slow
fast
+/-
esc
set tempo
stop
Quietus- Foxing

This is a tab for Ricky's part only.

Tuning: EBEG#BE No Capo

The part names are arbitrary, because nothing really repeats.
If you need help, watch their Audiotree session.

[Intro] X8

e |-----------0----0----0---0---0---0---0---0---0-----------------------------|
B |---12*--17---16---12---9---4---4---4---4---4-------------------------------|
G#|---12*---------------------------------------------------------------------|
E |---12*---------------------------------------------------------------------|
B |---12*---------------------------------------------------------------------|
E |---------------------------------------------------------------------------|


[Verse] X2

e |----0-------0-------0-----0--------0---------------------------------------|
B |-------4-------4-------4-----4---------------------------------------------|
G#|---------------------------------------------------------------------------|
E |---------------------------------------------------------------------------|
B |---------------------------------------------------------------------------|
E |--0-------0-------0-------------0------------------------------------------|

e |-----2--------2------2-----2--------0--------------------------------------|
B |--------0--------0------0-----0--------------------------------------------|
G#|---------------------------------------------------------------------------|
E |---------------------------------------------------------------------------|
B |---------------------------------------------------------------------------|
E |--0-------0-------0-------------0------------------------------------------|

[Chorus]

e |---------------------------------------------------------------------------|
B |---------------------------------------------------------------------------|
G#|---------------------------------------------------------------------------|
E |------0-----------0-----------0-------0-0-0-0-0-0--------------------------|
B |----4---4---4---4---4---4---2---2---2-0-0-0-0-0-0--------------------------|
E |--5-------5---5-------5---4-------4---2-2-2-2-2-2--------------------------|


[Bridge] X5

e |---------------------------------------------------------------------------|
B |---------------------------------------------------------------------------|
G#|------------------------------------0--------------12----------------------|
E |--------------------------------4-----4-------9-------9--------------------|
B |----4------2------0------0----5---5-----5--10---10------10-----------------|
E |--5---5--4---4--2---2--2---2-----------------------------------------------|

e |---------------------------------------------------------------------------|
B |---------------------------------------------------------------------------|
G#|--------0------------8-----------------------------------------------------|
E |----5-----5------7-----7---------------------------------------------------|
B |--7---7-----7--9---9-----9-------------------------------------------------|
E |---------------------------------------------------------------------------|

[Outro 1]
Play this part once
e |------------------------------|
B |------------------------------|
G#|------------------------------|
E |------------------------------|
B |----4------2------0------0----|
E |--5---5--4---4--2---2--2---2--|

This part repeats three times
e |------------------------------|
B |------------------------------|
G#|------------------------------|
E |----------0-------9~---7------|
B |----5--7--------5----------5--|
E |--0-----------5---------------|

[Outro] Repeat until end.
The tapping is a little difficult to get the hang of. 
The pull of at the end may not happen every time.

       t  t  t  t  t   t     t  t  t   t  t  t  t
e |---------------------------------------------------------------------------|
B |---------------------------------------------------------------------------|
G#|---------------------------------------------------------------------------|
E |------------------------------------------7--12p7--------------------------|
B |--------------7--9--7---------------7--9-----------------------------------|
E |--0h4--5--9-------------0h4--5--9------------------------------------------|



************************************

| *   Harmonic
| t  Tapping

************************************





            
            
Suggest correction
Creating personal tab
Creating personal tab
You can edit any tab online and save it as your Personal.

You can edit, replace or remove any tab part or add personal notes – all changes will be seen only by you.

Personal tabs can be accessed anytime from any device, even offline.
Learn more »
Give kudos to tab author, rate the tab!
1 2 3 4 5
comments
print report bad tab
guest
You may want to rate the tab now too:
select rating
Wanna post a correction for this tab? Suggest correction