Oops, an error
Loading. Please wait.

Av. Larco tab

version 1
version 1

Whole song

by Fragil
164 views 1 this week
no commentswrite comment
1 2 3 4 5
2 more votes to show rating
add to favorites
×
Save as Personal and add changes to this tab that will be seen only by you. Learn more ›
×
You can save this tab as Personal to edit and correct it or add notes. All changes will be seen only by you. Learn more »
launch autoscroll
font size
0
reset
how to read this tab
guitar tuner
edit
Autoscroll
slow
fast
+/-
esc
set tempo
stop
Intro :


(este intro dura hasta q acaba y primer punteo)

e-14-14-14-14-14-17-16-12--
b--------------------------
g-11-11-11-11-11-14-13-9---
d--------------------------
a--------------------------
e--------------------------

Una luz reflejada,

la modelo mirando a la nada,

hoy es viernes sangriento,

alli pronto habra movimiento,

e---------------------------------------------
b--------7-9--10-9-7--------------------------
g--4s(7)-------------9-7-6h(7)p(6)---4---4-4--
d----------------------------------7---7------
a---------------------------------------------
e---------------------------------------------


e-----------------------------------------------
b--------------------------------10-12-12f------
g---4-4-4-4-((4))-----------9-11----------------
d------------------9-11-12----------------------
a-----------------------------------------------
e-----------------------------------------------


F+m     E        A
   Cazadores vienen y van,

       D      A         D
   buscando presas por la ciudad

      F+m      E         A
   motores rugientes en tempestad

     D       A         D
   llegan a Larco a manifestar


(en esta parte el bajo y teclado hacen otras notas,osea : A-G-F-E,pero
 la guitarra marca solo en la A y despues en E)


Coro 1

            A
   pues es viernes sangriento,

             A
   pues sus casas dejaron,

          A
   buscan unas muchachas,

      E
   estan embalados en tragos. (esta parte va con este punteo de fondo)


e--------------------------------------
b---------------------9----9-10-9------
g------9----9-11-9-11---11--------11/--
d-9-11---11----------------------------
a--------------------------------------
e--------------------------------------


(esta estrofa es igual a la primera)

Y las que son presas vienen tambien,
saben lo que tienen que exponer
faldita a la moda, jean apretado,
llegan de todos lados,
ellas entran en la noche,
ellas marcan los tonos
ellas suben al coche,
estan preparadas a todo


e-14-14-14-14-14-17-16-12-14-14-14-14-14-17-16-17--
b--------------------------------------------------
g-11-11-11-11-11-14-13-9--11-11-11-11-11-14-13-14--      x2
d--------------------------------------------------
a--------------------------------------------------
e--------------------------------------------------

 Teclado,luego la guitarra responde con : D5 - E5 (2 veces)


Solo :
e---------------------------------------------------------------------
b---------------------------------------------------------------------
g-4f-4-2-4-4s(7)-4-------6h(7)p(6)h(7)p(6)p(7)p(6)h(7)p(6)h(7)p(6)h(7)
d------------------6h(7)----------------------------------------------
a---------------------------------------------------------------------
e---------------------------------------------------------------------

e------------------------------------------------
b------------------------------------------------
g------------------------------------------------
d-6h(7)p(6)h(7)p(6)p(7)p(6)h(7)p(6)h(7)p(6)h(7)--
a------------------------------------------------
e------------------------------------------------


e-----------12-10-9-10-9h10p9------------------------7-7s(9)-
b-10-9-10--------------------------------7-9-10-9-10---------
g----------------------------------6-7-9---------------------
d------------------------------7-9---------------------------
a------------------------------------------------------------
e------------------------------------------------------------

e------------------17-16-14-16-------------------------
b-10-9-10--14h(15)-------------------------------------
g-----------------------------------6h(7)p(6)h(7)p(6)--
d---------------------------------7-6h(7)p(6)h(7)p(6)--
a------------------------------------------------------
e------------------------------------------------------


e--------------------------------------------
b---------------------------10-9-10-12f------
g-4h(6)h(7)--6h(7)h(9)s(11)------------------
d--------------------------------------------
a--------------------------------------------
e--------------------------------------------


Coro 2      (igual q el coro 1)

hay algunos que fallan,
otros que no se mandan,
y cuando se diciden el rio no trae agua,
ellas siempre sonrien, y hasta se ruborizan,
y cuando eso les piden, se bajan del coche aprisa.


e-2--2--3--5---(2)-(3)-(5)--
b-2--2--3--5---(2)-(3)-(5)--
g-4--4--5--7---(4)-(5)-(7)--
d-4--4--5--7---(4)-(5)-(7)--
a-2--2--3--5---(2)-(3)-(5)--
e---------------------------


(esta estrofa es igual q la primera solo q los cambios de acordes
 son mas rapido,son cincopados)


La madrugada llega a alumbrar,
el fin de fiesta se acerca ya
calles desiertas, hay soledad,
blancas botellas vacias ya,


Coro 3     (igual q los demas)

¿donde se fueron todos?
¿donde quedo la bulla?
¿donde estan las muchachas?
¿donde cazadores donde donde estan?


e-----------------------------------
b-----------------------------------
g-----------------9----9-11-9-11/---
d-9-11--9-11-9-11---11--------------
a-----------------------------------
e-----------------------------------


        A
¿donde se fue la noche?
          A
¿donde esta la armonia?
         A                    E
¿donde quedo la bulla que alimenta las calles de Larco?

los viernes sangrientos de farra,¿donde do donde donde estan?


P.M...............................

e-----------------------------------------------------------
b--------------------------------9----9-10-9-10-12-12f------
g-----------------9----9-11-9-11---11-----------------------
d-9-11--9-11-9-11---11--------------------------------------
a-----------------------------------------------------------
e-----------------------------------------------------------


Fuga :

e----------------------------------------------
b---------------------------------7-5----------
g-6---------6-4---------6---2s(4)------7-6-4---    x4...FIN
d---7---4-7-----4-3-2-----7--------------------
a----------------------------------------------
e----------------------------------------------

Esta a un 90%,disfrutenla,paz para todos.
Gianfranco Bracho W.

            
            
Suggest correction
Creating personal tab
Creating personal tab
You can edit any tab online and save it as your Personal.

You can edit, replace or remove any tab part or add personal notes – all changes will be seen only by you.

Personal tabs can be accessed anytime from any device, even offline.
Learn more »
Give kudos to tab author, rate the tab!
1 2 3 4 5
comments
print report bad tab
guest
Wanna post a correction for this tab? Suggest correction