Oops, an error
Loading. Please wait.

Falling Slowly tab

version 1
version 1

Whole song

Interactive

by Frames
104,672 views 1 this week
4 commentsread comments
1 2 3 4 5
x 15
add to favorites
×
Save as Personal and add changes to this tab that will be seen only by you. Learn more ›
×
You can save this tab as Personal to edit and correct it or add notes. All changes will be seen only by you. Learn more »
launch autoscroll
font size
0
reset
how to read this tab
guitar tuner
edit
Autoscroll
slow
fast
+/-
esc
set tempo
stop
Author
Difficulty
Falling Slowly
The Frames

(1)
e ------------------------0--------------------------------------------1----------------|
B ------------3---------------------3----------------------3----------------------3-----|
G -------0---------0---------0----------0-----------0---------0----------0-----------0--|
D --------------------------------------------------------------------------------------|
A --3-----------------------------------------------------------------------------------|
E -----------------------------------------------1--------------------------------------|

e ----------------------0------------------------------------------------------------------|
B ------------3-------------------3-------------------------1----------1------------1------|
G -------0-------0---------0---------0--------------0-----------0----------0------------0--|
D -----------------------------------------------------------------------------------------|
A --3--------------------------------------------------------------------------------------|
E ---------------------------------------------1-------------------------------------------|

(2)
e ---------------0--------------------0---------------------------------------------------|
B ------------------------------------------------------------1------------------------3--|
G --------2---------2----------2---------2----------2----------2-------------0---------0--|
D ----------------------------------------------------------------------------------------|
A -----0-------------------3--------------------------------------------------------------|
E ------------------------------------------------1-----------------------3---------------|

e ---------------0--------------------0------------------------|
B -------------------------------------------------------------|
G --------2---------2----------2---------2---------------------|     go into F
D -------------------------------------------------------------|
A -----0-------------------3-----------------------------------|
E -------------------------------------------------------------|

(1)
I don’t know you, but I want you
All the more for that
Words fall through me, and always fool me
And I can’t react

(2)
Games that never amount
To more than they’re meant
Will play themselves out

C                         F
Take this sinking boat
                   A
And point it home
                       F
We’ve still got time
C                            F
Raise your hopeful voice
                  A
You had a choice
                         F
You’ve made it now

(1)
Falling slowly, eyes that know me
And I can’t go back
Moods that take me, and erase me
And I’m painted black

(2)
You have suffered enough
And warred with yourself
It’s time that you won

C                         F
Take this sinking boat
                   A
And point it home
                       F
We’ve still got time
C                            F
Raise your hopeful voice
                  A
You had a choice
                         F
You’ve made it now

(keep going on F until the end of the song)

enjoy! livi flynn**

            
            
Suggest correction
Creating personal tab
Creating personal tab
You can edit any tab online and save it as your Personal.

You can edit, replace or remove any tab part or add personal notes – all changes will be seen only by you.

Personal tabs can be accessed anytime from any device, even offline.
Learn more »
comments
print report bad tab
4 comments total. Showing first comments.
+2 reply
sweetworld731 52 Jul 24, 2007 07:47 PM

good job. only thing is i think you mean Am instead of A.

also, for those who want to incorporate the vocal riff in the chorus:
-0-0-0-0--0-0-0-0--0-0-0-0--1--
-1-3-0-1--1-3-0-1--1-3-0-1--1--
-0-0-0-0--2-2-2-2--2-2-2-2--2--
-2-2-2-2--3-3-3-3--2-2-2-2--3--
-3-3-3-3--------------------3--
----------------------------1--

+1 reply
andblackpoetry 51 Jul 27, 2007 09:29 AM

aye, i did mean Am instead of A! thanks. **

+4 reply
bells44 31 Feb 08, 2008 04:20 PM

Great start to a great song. I think theres one little fix though in the first part of the verse, in the first line.

e ------------------------0--------------------------------------------1-----------0----|
B ------------3---------------------3----------------------3----------------------------|
G -------0---------0---------0----------0-----------0---------0----------0-----------0--|
D --------------------------------------------------------------------------------------|
A --3-----------------------------------------------------------------------------------|
E -----------------------------------------------1--------------------------------------|

i also find that its a lot easier if you just tune the E string up a half step to get to the F so you don't have to use your thumb. One other little thing is that it sounds nice to finger pick the first fret of the B string at the same time as the root note during the verse (the third fret of the A string or the 1st fret or open E string, depending on if you tune up or not). other than that, great tab.

guest
You may want to rate the tab now too:
select rating
Wanna post a correction for this tab? Suggest correction