Oops, an error
Loading. Please wait.

Voy A Pensar En Ti tab

version 1
version 1

Whole song

Interactive

74 views 1 this week
no commentswrite comment
1 2 3 4 5
3 more votes to show rating
add to favorites
×
Save as Personal and add changes to this tab that will be seen only by you. Learn more ›
×
You can save this tab as Personal to edit and correct it or add notes. All changes will be seen only by you. Learn more »
launch autoscroll
font size
0
reset
how to read this tab
guitar tuner
edit
Autoscroll
slow
fast
+/-
esc
set tempo
stop
Las otras dos Transcripciones no me convencian 
asi que aki expongo mi propuesta, se la dedico a 
todos aquellos que estan enamorados y se sienten 
identificados con esta cancion.

Cejilla traste 2

Arpegiado del principio

-2--3-2-0-----2--------------2--------------2-------------3-2---------
----------3-----3---3------3---3---3------3---3---3-----3-----3---3-
------------0-----0------2-------2------0-------0-----0---------0----
-0---------------------4--------------------------------------------
--------------------------------------2-------------0----------------
---------------------------------------------------------------------


-------2--------------2--------------2--------
-----3---3---3------3---3---3------3---3---3--
---2-------2------2-------2------0-------0----   + rasgueo de 000032
-0--------------4-----------------------------
-------------------------------2--------------
----------------------------------------------


Este es el arpegiado que lleva los primeros 4 versos de la canción
   D
--------2-------------2-------------2--------------3-2--------
------3---3---3-----3---3---3-----3---3--3-------3-----3---3----
----2-------2-----2-------2------0-----0-------0---------0-----
--0-------------4---------------------------------------------
------------------------------2-------------0-----------------
------------------------------------------------------------


Oigo pasar ese avión 
Que te lleva al planeta de los olvidos
Sé que es difícil que vuelva a encontrarte
Y que se crucen nuestros caminos


         G        A
Voy a pensar en ti
      D  A    Bm ( un cambio de 224432 a 224422 rápido) 
Únicamente en ti
G                      A
Guardarte en la caja fuerte
         D ( 000232  - 000233  - 000232)
De mi memoria
         G        A
Voy a pensar en ti
       D  A    Bm ( un cambio de 224432 a 224422 rápido) 
Básicamente en ti
     E             A
Es todo lo que necesito

Para sobrevivir

(Aquí he vuelto a meter el arpegio del inicio
 para no complicarlo con armónicos)


( en estos 4 versos, lo mismo que en los 
otros primeros 4 pero pellizcando las cuerdas)

Leo el periódico y dice
Que hay guerra otra vez
En esta misma tierra
Dice el hombre del tiempo
Que viene una ola de amor polar
    
         G       A
Voy a pensar en ti
      D   A    Bm ( un cambio de 224432 a 224422 rápido)
Únicamente en ti
G                         A
Guardarte en la caja fuerte
         D ( 000232  - 000233  - 000232)
De mi memoria
          G       A
Voy a pensar en ti
        D  A    Bm  ( un cambio de 224432 a 224422 rápido)
Básicamente en ti
 E                 A
Es todo lo que necesito

Para sobrevivir


--------2-------------2-------------2--------------3-2--------
------3---3---3-----3---3---3-----3---3--3-------3-----3---3----
----2-------2-----2-------2------0-----0-------0---------0-----
--0-------------4---------------------------------------------
------------------------------2-------------0-----------------
------------------------------------------------------------


   A1
Voy a pensar solo en ti    
   A2
Sin respirar solo en ti
   A3
Voy a pensar solo en ti.

                     Bm
Voy a pensar solo en ti
                     A#
Sin respirar solo en ti
                      D
Voy a pensar solo en ti.


         G       A
Voy a pensar en ti
      D   A    Bm ( un cambio de 224432 a 224422 rápido)
Únicamente en ti
G                         A
Guardarte en la caja fuerte
         D ( 000232  - 000233  - 000232)
De mi memoria
          G       A
Voy a pensar en ti
        D  A    Bm  ( un cambio de 224432 a 224422 rápido)
Básicamente en ti
 E                 A
Es todo lo que necesito
               G - 100033- 000033- D
Para sobrevivir


A1 
-------------------------------
--------2-3-2---3--2---3-2-----
------2-------2------2------2--
----0--------------------------
--2----------------------------
-------------------------------

A2

-------------------------------
----------0-----2-----0--------
--------1---1-----1-----1------
------0-------0-----0-----0----
----2--------------------------
--0----------------------------

A3
------------3------2-----0-3------
----------3----3-----3--------3---
--------2--------2-----2--------2-
------0---------------------------
----0-----------------------------
----------------------------------

            
            
Suggest correction
Creating personal tab
Creating personal tab
You can edit any tab online and save it as your Personal.

You can edit, replace or remove any tab part or add personal notes – all changes will be seen only by you.

Personal tabs can be accessed anytime from any device, even offline.
Learn more »
Give kudos to tab author, rate the tab!
1 2 3 4 5
comments
print report bad tab
guest
Wanna post a correction for this tab? Suggest correction