Oops, an error
Loading. Please wait.

This Gathering tab

by Franco
27,278 views 9 this week
no commentswrite comment
1 2 3 4 5
x 5
add to favorites
×
Save as Personal and add changes to this tab that will be seen only by you. Learn more ›
×
You can save this tab as Personal to edit and correct it or add notes. All changes will be seen only by you. Learn more »
launch autoscroll
font size
0
reset
how to read this tab
guitar tuner
edit
Autoscroll
slow
fast
+/-
esc
set tempo
stop
Author
Tabbers playing skills
advanced +
PLS LIKE OUR BAND FAN PAGE @ FACEBOOK -Arista(lucena) http://www.facebook.com/
pages/Arista-Lucena/226729694026830

Franco - This Gathering

Tuning -Drop C#

Intro-

GtrI
|-xx-5-5-5-5-5-5-5-5-5---|------5-5-5-5-5-5-5-5-5-------|
|-xx-6-6-6-6-6-6-6-6-6---|--xx--6-6-6-6-6-6-6-6-6-------|
|-xx-7-7-7-7-7-7-7-7-7---|--xx--7-7-7-7-7-7-7-7-7-------|
|-xx-7-7-7-7-7-7-7-7-7---|--xx--7-7-7-7-7-7-7-7-7-------|4x
|-xx-5-5-5-5-5-5-5-5-5---|--xx--5-5-5-5-5-5-5-5-5-------|
|------------------------|--xx--5-5-5-5-5-5-5-5-5-------|

GtrII
|-------------------------------------------------------------|
|-////--5/6\5~--3/5/6\-5/6/8\-6/8\5~-///////////////----------|
|-------------------------------------------------------------|
|-------------------------------------------------------------|
|-------------------------------------------------------------|
|-------------------------------------------------------------|

|--5/6\5---------5~-------------------------------------------|
|-----------5/6---------5/6\5~/---///10/15---10-///-5/6-6////-|
|-------------------------------------------------------------|
|-------------------------------------------------------------|
|-------------------------------------------------------------|
|-------------------------------------------------------------|

II.
GtrI
|-------------------------------------------------------------|
|-------------------------------------------------------------|
|-777-555-777-555-77-5---101010-999-101010-999-1010-12--------|
|-------------------------------------------------------------|
|-555-333-555-333-55-3---8-8-8--777-8-8-8--777-8-8--10--------|
|-------------------------------------------------------------|

|-------------------------------------------------------------|
|-------------------------------------------------------------|
|-777-555-777-555-77-5---101010-999-101010-999-1010-9---------|
|-------------------------------------------------------------|
|-555-333-555-333-55-3---8-8-8--777-8-8-8--777-8-8--7---------|
|-------------------------------------------------------------|

GtrII
|-------------------------------------------------------------|
|-------------------------------------------------------------|
|-------------------------------------------------------------|
|-121212-101010-121212-101010-121210--555-333-555-333-55-3----|2x
|-121212-101010-121212-101010-121210--555-333-555-333-55-3----|
|-121212-101010-121212-101010-121210--555-333-555-333-55-3----|

Verse-

GtrI
|-xx-5-5-5-5-5-5-5-5-5---|------5-5-5-5-5-5-5-5-5-------|
|-xx-6-6-6-6-6-6-6-6-6---|--xx--6-6-6-6-6-6-6-6-6-------|
|-xx-7-7-7-7-7-7-7-7-7---|--xx--7-7-7-7-7-7-7-7-7-------|
|-xx-7-7-7-7-7-7-7-7-7---|--xx--7-7-7-7-7-7-7-7-7-------|4x
|-xx-5-5-5-5-5-5-5-5-5---|--xx--5-5-5-5-5-5-5-5-5-------|
|------------------------|--xx--5-5-5-5-5-5-5-5-5-------|

GtrII
Dm                                         Gm
Well hello our circle's back to whole again
Dm                                         Gm
Here we go tonight we pile around the bend
Dm                                         Gm
City lights delight providers for the head
Dm                                      Gm
We afloat tonight the heaven is our bed

Refrain-
GtrI
|-------------------------------------------------------------|
|-------------------------------------------------------------|
|-------------------------------------------------------------|
|-----------------------10/12-1212-----------------------8888-|2x
|------8-------8--------10/12-1212-------8--------8------8888-|
|-7-7---10---7---10--7--10/12-1212--7-7---10---7---10--7-8888-|
GtrII
Am 
Lift me up my friend
Am 
Fill the cup and then...

Chorus-

GtrI
|---------------------------------------|
|---------------------------------------|
|--------------------99-99-99-99-999----|
|-3-3-3-3-3-3-3-3-3--77-77-77-77-777----|
|-3-3-3-3-3-3-3-3-3--77-77-77-77-777----|
|-3-3-3-3-3-3-3-3-3--77-77-77-77-777----|

F                               Am
My friends we are one again tonight
F                                  Am
My friends we are one of the same kind
Dm                                  Bb
My friends are we gathered for the fight
Am...
We are

Do verse
Dm                      Gm
In time we'll be together
Dm                 Gm
I'll be home forever


|---------------------------------------|
|---------------------------------------|
|---------------------------------------|
|-8-8-8-8-8-8-8-8-8-8-8-8-8-8-8---------|
|-8-8-8-8-8-8-8-8-8-8-8-8-8-8-8---------|
|-8-8-8-8-8-8-8-8-8-8-8-8-8-8-8---------|
Bb
To say hello again
Bb
Well hello my friend

Do chorus
F                               Am
My friends we are one again tonight
F                                  Am
My friends we are one of the same kind
   Dm                             Bb
My friends are we gathered for the fight
   F
We are
            Dm 
Open your mind and be adventurous
F               Am
You get but one try
F          Dm 
Open your eyes and be the things you want
Gm          Bb
And rely on with no spite

F                               Am
My friends we are one again tonight
F                                   Am
My friends we are one of the same kind


|-----------------------------------------------------|
|-----------1010--------1010--1111--1010--------------|
|-99--1010--------1010--------------------1010--------|
|-----------------------------------------------------|2x
|-----------------------------------------------------|
|-----------------------------------------------------|

|-----------------------------------------------------|
|---------1010-13-10-------1010-13-10-------1111------|
|-10-(10)------------1010-------------1010------------|
|-----------------------------------------------------|12x(till fade
|-----------------------------------------------------|
|-----------------------------------------------------|


Dm                                   Bb
My friends are we gathered for the fight
F C/E
We are

outro
Dm 
We are
Bb
We are
F
We are
C/E
We are


            
            
Suggest correction
Creating personal tab
Creating personal tab
You can edit any tab online and save it as your Personal.

You can edit, replace or remove any tab part or add personal notes – all changes will be seen only by you.

Personal tabs can be accessed anytime from any device, even offline.
Learn more »
comments
print report bad tab
guest
You may want to rate the tab now too:
select rating
Wanna post a correction for this tab? Suggest correction