Oops, an error
Loading. Please wait.

Fuera De Este Mundo tab

version 1
version 1

Whole song

43 views 1 this week
no commentswrite comment
1 2 3 4 5
3 more votes to show rating
add to favorites
×
Save as Personal and add changes to this tab that will be seen only by you. Learn more ›
×
You can save this tab as Personal to edit and correct it or add notes. All changes will be seen only by you. Learn more »
launch autoscroll
font size
0
reset
how to read this tab
guitar tuner
edit
Autoscroll
slow
fast
+/-
esc
set tempo
stop
Excelente pieza del criollo Franco de Vita.

Use la tab de JUAN, solo le he agregado el arpegio de la guitarra ,
el solo del violín para el qe lo kiera tocar con la guitarra
y otros adornos mas.

Esto lo hace la guitarra durante el introd.
                                                               X2
E -----------------------------|--------------------0----------|
B -----3----3-------3-----3----|-----3-----3-------------3-----|
G ---0-----0-0----0------0-0---|---0------0-0-----0-----0-0----|
D --0------------0-------------|--0--------------0-------------|
A -----------------------------|-------------------------------|
E -3------------3--------------|-3-------------3---------------|

Luego sigue igual pero cambiando la secuencia de los bajos según el tono,
hasta el coro donde comienza el rasgueo.


I.

G            D             Em
Quien te puso en mi camino
          D
Quien te dijo que
           C
aun estaba vivo
      G       C         D
Quien tuvo la brillante idea *


En esta parte hace un pequeño cambio para volver a empezar:


           C           G               C            D
E -----------------------------|--------------------0-----------|
B -----3----3-------3-----3----|-----3-----3-----------3--0-----|
G ---0-----0-0----0------0-0---|---0------0-0-----2----------0--|
D --2------------0-------------|--2--------------0--------------|
A -3---------------------------|-3------------------------------|
E --------------3--------------|--------------2-----------------|


II.

G      D             Em
Con un corazón que ardía
        D          C
Por falta de compañía
     G       C        D
Por tanta, tanta soledad *


Al final, igual que antes:


E -----------------------------|----------------------0---------|
B -----3----3-------3-----3----|-----3-----3--------3---3-0-----|
G ---0-----0-0----0------0-0---|---0------0-0-----2----------0--|
D --2------------0-------------|--2--------------0--------------|
A -3---------------------------|-3------------------------------|
E -------------3---------------|--------------2-----------------|


PRE-CORO:

Em    G          D           G
Y me dijo que también estaba sola
Em          G
Y abrí mis brazos
         D           G  D
Y así le entregue la vida


CORO: (comienza el rasgueo)

Em G         D            G    D
Y  volamos,*(ADORNO)  fuera de este mundo
Em     G     D        G     D
Por un rato**, me sentí seguro
Em               G         D
Y libre como el pensamiento ***
          G  D      Em
Como para no volver

*(ADORNO)
A ----5^------10----------|
E -3- 5^---3--10----------|

**(ADORNO)
D -2-2--5-5--2-2--5-5-----|
A -2-2--5-5--2-2--5-5-----|

***(ADORNO)
G -7^-5-------------------|
D ------7-----------------|


III.

G        D          Em
Se nos fue la noche entera
        D      C
Entre besos y quimeras
G         C         D
Debajo de una luna llena

IV.

G    D            Em
Nos dijimos pocas cosas
      D               C
Justo lo que nuestras bocas
G         C           D
Quedaban libres para hablar*

* aDORNO
B -------------8------------------------------|
G ----------------9-7----7^9^7----------------|
D ---------------------9----------------------|


PRE-CORO:

Em       G        D          G
Y nos perdimos en la noche clara y negra*

* aDORNO
B -7--7-9-7-9---------------------------------|

Em             G      D           G   D
Y allí comprendí que vivir vale la pena

(De aki los adornos se repiten*)

CORO:

Em G         D            G    D
Y  volamos, fuera de este mundo
Em     G     D        G     D
Por un rato, me sentí seguro
Em               G         D
Y libre como el pensamiento
          G  D      Em
Como para no volver


Violín en la guitarra; Las que están en () son adornos de la guitarra
mientras el violin hace el solo*

E-12--10-12--10-12-10-12----12--10--7--10------------------------------|
B------------------------------------------(5)-------------------------|
G---------------------------------------------(7)(4)-------------------|
D--------------------------------------------------(7)(5)--------------|
A---------------------------------------------------------(7)----------|


E-12--10-12--10-12-10-12----12--14--15--14-15-17-17--15-17-19-17-15----|
B-------------------------------------------------------------------17-|


E-19-17-15-----19-17-19-20-19-17-19-17-19-17---------------------------|
B----------15--------------------------------19-17---------------------|
G---------------------------------------------------16--14--12---------|
D---------------------------------------------------------------14-----|


E--------------12-15-17-19-17----17-15-12------------------------------|
B-------12-15-----------------------------15-12----12------------------|
G-12-14-----------------------------------------14---14-12-------------|
D----------------------------------------------------------14-12-------|
A----------------------------------------------------------------14-12-|

E-------------------------------------------------------19-------------|
B------------------------12-14-12----(8)-------------------------------|
G-------------12---12-14----------------(9)-(7)-----(9)----------------|
D-------12-14---14-----------------------------(7/9)-------------------|
A-12-14----------------------------------------------------------------|


Em           G
Y llegue a pensar que no
D            G
Era de este mundo
Em    G           D
Tanto amor no se concibe
      G     D
en un segundo

Em G         D            G    D
Y  volamos, fuera de este mundo
Em     G     D        G     D
Por un rato, me sentí seguro
Em               G         D
Y libre como el pensamiento
          G  D      Em
Como para no volver

E -------------------------------------|
B --5--------------------8----5--------|
G -----7--5---5-7-5--------------------|
D ----------7-------7------------------|


Cualkier duda o error me avisan =)

            
            
Suggest correction
Creating personal tab
Creating personal tab
You can edit any tab online and save it as your Personal.

You can edit, replace or remove any tab part or add personal notes – all changes will be seen only by you.

Personal tabs can be accessed anytime from any device, even offline.
Learn more »
Give kudos to tab author, rate the tab!
1 2 3 4 5
comments
print report bad tab
guest
Wanna post a correction for this tab? Suggest correction