Oops, an error
Loading. Please wait.

Koud In Mijn Hart bass

100 views 6 this week
no commentswrite comment
1 2 3 4 5
3 more votes to show rating
add to favorites
×
Save as Personal and add changes to this tab that will be seen only by you. Learn more ›
×
You can save this tab as Personal to edit and correct it or add notes. All changes will be seen only by you. Learn more »
launch autoscroll
font size
0
reset
guitar tuner
edit
Autoscroll
slow
fast
+/-
esc
set tempo
stop
Author
Difficulty
Frank Boeijen - Koud in mijn hart - from the Album "Toen en nu". 

Tuning = (E A D G)

Q=130BPM 4/4

[INTRO]

     Q  E E Q  Q    Q  E E Q  Q    Q  E E Q  Q    Q  E E Q  Q
G||---------------|--------------|--------------|---------------||
D||o--------------|--------------|--------------|--------------o||
A||o--------------|--------------|--------------|--------------o||
E||--0----0-0-----|-0----0-0-----|-0----0-0-----|-0----0-0------||


   Q  E E Q  Q    Q  E E Q  Q    Q  E E Q  Q    Q  E E Q  Q
G|--------------|--------------|--------------|--------------|
D|--------------|--------------|--------------|--------------|
A|--------------|--------------|--------------|--------------|
E|-7----7-7-----|-7----7-5-----|-2----2-2-----|-5----5-5-----|


[VERSE 1]

   Q  E E Q  Q    Q  E E Q  Q
G|--------------|----------------|
D|--------------|----------------|
A|--------------|----------------|
E|-0----0-0-----|-0----0-0-------|


   Q  E E Q  Q    Q  E E Q  Q    Q  E E Q  Q    Q  E E Q  Q
G|--------------|--------------|--------------|--------------|
D|--------------|--------------|--------------|--------------|
A|--------------|--------------|--------------|--------------|
E|-0----0-0-----|-0----0-0-----|-0----0-0-----|-0----0-0-----|


   Q  E E Q  Q    Q  E E Q  Q    Q  E E Q  Q    Q  E E Q  Q
G|--------------|--------------|--------------|--------------|
D|--------------|--------------|--------------|--------------|
A|--------------|--------------|--------------|--------------|
E|-7----7-7-----|-7----7-5-----|-2----2-2-----|-5----5-5-----|


   Q  E E Q  Q    Q  E E Q  Q
G|--------------|----------------|
D|--------------|----------------|
A|--------------|----------------|
E|-0----0-0-----|-0----0-0-------|


   Q  E E Q  Q    Q  E E Q  Q    Q  E E Q  Q    Q  E E Q  Q
G|--------------|--------------|--------------|--------------|
D|--------------|--------------|--------------|--------------|
A|-5----5-5-----|-5----5-5-----|--------------|--------------|
E|--------------|--------------|-5----5-5-----|-5----5-5-----|


[VERSE 2]


   Q  E E Q  Q    Q  E E Q  Q    Q  E E Q  Q    Q  E E Q  Q
G|--------------|--------------|--------------|--------------|
D|--------------|--------------|--------------|--------------|
A|--------------|--------------|--------------|--------------|
E|-0----0-0-----|-0----0-0-----|-0----0-0-----|-0----0-0-----|


   Q  E E Q  Q    Q  E E Q  Q
G|--------------|----------------|
D|--------------|----------------|
A|--------------|----------------|
E|-0----0-0-----|-0----0-0-------|


   Q  E E Q  Q    Q  E E Q  Q    Q  E E Q  Q    Q  E E Q  Q
G|--------------|--------------|--------------|--------------|
D|--------------|--------------|--------------|--------------|
A|--------------|--------------|--------------|--------------|
E|-7----7-7-----|-7----7-5-----|-2----2-2-----|-5----5-5-----|


   Q  E E Q  Q    Q  E E Q  Q    Q  E E Q  Q    Q  E E Q  Q
G|--------------|--------------|--------------|--------------|
D|--------------|--------------|--------------|--------------|
A|--------------|--------------|-5----5-5-----|-5----5-5-----|
E|-0----0-0-----|-0----0-0-----|--------------|--------------|


[CHORUS]


   Q  E E Q  Q    Q  E E Q  Q    Q  E E Q  Q    Q  E E Q  Q
G|--------------|--------------|--------------|--------------|
D|--------------|--------------|--------------|--------------|
A|--------------|--------------|--------------|--------------|
E|-5----5-5-----|-5----5-5-----|-0----0-0-----|-0----0-0-----|


   Q  E E Q  Q    Q  E E Q  Q    Q  E E Q  Q    Q  E E Q  Q
G|--------------|--------------|--------------|--------------|
D|--------------|--------------|--------------|--------------|
A|-----------3--|-5----5-5-----|--------------|--------------|
E|-5----5-5-----|--------------|-0----0-0-----|-0----0-0-----|


[CENTRE PART]


   Q  E E Q  Q    Q  E E Q  Q    Q  E E Q  Q    Q  E E Q  Q
G|--------------|--------------|--------------|--------------|
D|--------------|--------------|--------------|--------------|
A|--------------|--------2-----|--------------|--------------|
E|-3----3-3-----|-2----2-------|-5----5-5-----|-5----5-5-----|


   Q  E E Q  Q    Q  E E Q  Q    Q  E E Q  Q    Q  E E E E E E
G|--------------|--------------|--------------|----------------|
D|--------------|--------------|--------------|----------------|
A|--------------|--------2-----|-5----5-5-----|-5----5-5-5-5---|
E|-3----3-3-----|-2----2-------|--------------|----------------|


   Q  E E Q  Q    Q  E E Q  Q    Q  E E Q  Q    Q  E E Q  Q
G|--------------|--------------|--------------|--------------|
D|--------------|--------------|--------------|--------------|
A|--------------|--------------|--------------|--------------|
E|-3----3-3-----|-2----2-5-----|-5----5-5-----|-5----5-5-----|


   Q  E E Q  Q    Q  E E Q  Q    Q  E E Q  Q    Q  E E Q Q
G|--------------|--------------|--------------|--------------|
D|--------------|--------------|--------------|--------5-7---|
A|--------------|--------2-----|-5----5-5-----|-5----5-------|
E|-3----3-3-----|-2----2-------|--------------|--------------|


[SOLO]


   Q  E E Q  Q    Q  E E Q  Q    Q  E E Q  Q    Q  E E Q  Q
G|--------------|--------------|--------------|--------------|
D|--------------|--------------|--------------|--------------|
A|--------------|--------------|--------------|--------------|
E|-0----0-0-----|-0----0-0-----|-0----0-0-----|-0----0-0-----|


   Q  E E Q  Q    Q  E E Q  Q
G|--------------|----------------|
D|--------------|----------------|
A|--------------|----------------|
E|-0----0-0-----|-0----0-0-------|


   Q  E E Q  Q    Q  E E Q  Q    Q  E E Q  Q    Q  E E Q  Q
G|--------------|--------------|--------------|--------------|
D|--------------|--------------|--------------|--------------|
A|--------------|--------------|--------------|--------------|
E|-7----7-7-----|-7----7-5-----|-2----2-2-----|-5----5-5-----|


[VERSE 3]


   Q  E E Q  Q    Q  E E Q  Q    Q  E E Q  Q    Q  E E Q  Q
G|--------------|--------------|--------------|--------------|
D|--------------|--------------|--------------|--------------|
A|--------------|--------------|--------------|--------------|
E|-0----0-0-----|-0----0-0-----|-0----0-0-----|-0----0-0-----|


   Q  E E Q  Q    Q  E E Q  Q
G|--------------|----------------|
D|--------------|----------------|
A|--------------|----------------|
E|-0----0-0-----|-0----0-0-------|


   Q  E E Q  Q    Q  E E Q  Q    Q  E E Q  Q    Q  E E Q  Q
G|--------------|--------------|--------------|--------------|
D|--------------|--------------|--------------|--------------|
A|--------------|--------------|--------------|--------------|
E|-7----7-7-----|-7----7-5-----|-2----2-2-----|-5----5-5-----|


   Q  E E Q  Q    Q  E E Q  Q    Q  E E Q  Q    Q  E E Q  Q
G|--------------|--------------|--------------|--------------|
D|--------------|--------------|--------------|--------------|
A|--------------|--------------|-5----5-5-----|-5----5-5-----|
E|-0----0-0-----|-0----0-0-----|--------------|--------------|


   Q  E E Q  Q    Q  E E Q  Q
G|--------------|----------------|
D|--------------|----------------|
A|--------------|----------------|
E|-5----5-5-----|-5----5-5-------|


[CHORUS]


     Q  E E Q  Q    Q  E E Q  Q    Q  E E Q  Q    Q  E E Q  Q  4x
G||---------------|--------------|--------------|--------------||
D||o--------------|--------------|--------------|-------------o||
A||o--------------|--------------|-----------3--|-5----5-5----o||
E||--0----0-0-----|-0----0-0-----|-5----5-5-----|--------------||


   Q  E E Q  E E   Q  E E Q  Q    Q  E E Q  Q    Q  E E Q  Q
G|---------------|--------------|--------------|--------------|
D|---------------|--------------|--------------|--------------|
A|---------------|--------------|-----------3--|-5----5-5-----|
E|-0----0-0----0-|-0----0-0-----|-5----5-5-----|--------------|


[END]


   Q  E E Q  Q    Q  E E Q  Q    Q  E E Q  Q    Q  E E Q  Q
G|--------------|--------------|--------------|--------------|
D|--------------|--------------|--------------|--------------|
A|--------------|--------------|--------------|--------7-----|
E|-0----0-0-----|-0----0-0-----|-0----0-0-----|-0----0-------|


   E H..
G|----------|
D|----------|
A|----------|
E|---0------|


Duration Legend
---------------
W - whole; H - half; Q - quarter; E - 8th; S - 16th; T - 32nd; X - 64th; a - acciaccatura
+ - note tied to previous; . - note dotted; .. - note double dotted
Duration letters will always appear directly above the note/fret number it represents the
duration for.  Duration letters with no fret number below them represent rests.


Misc Legend
-----------
 |  - bar
||  - double bar
||o - repeat start
o|| - repeat end
*|  - double bar (ending)
 
Tempo markers -  = BPM(8/16=s8/s16), where s8 = swing 8ths, s16 = swing 16ths

A very nice play along for absolute beginners. - Enjoy - Hans Friendly

            
            
Suggest correction
Creating personal tab
Creating personal tab
You can edit any tab online and save it as your Personal.

You can edit, replace or remove any tab part or add personal notes – all changes will be seen only by you.

Personal tabs can be accessed anytime from any device, even offline.
Learn more »
Give kudos to tab author, rate the tab!
1 2 3 4 5
comments
print report bad tab
guest
You may want to rate the tab now too:
select rating
Wanna post a correction for this tab? Suggest correction