Oops, an error
Loading. Please wait.

Heart And Soul tab

version 1
version 1

Whole song

Interactive

12,687 views 24 this week
no commentswrite comment
1 2 3 4 5
x 12
add to favorites
×
Save as Personal and add changes to this tab that will be seen only by you. Learn more ›
×
You can save this tab as Personal to edit and correct it or add notes. All changes will be seen only by you. Learn more »
launch autoscroll
font size
0
reset
how to read this tab
guitar tuner
edit
Autoscroll
slow
fast
+/-
esc
set tempo
stop
Well this is chord/ slash tabs/ slash lesson cuz i made up some(two) of the chords, 
and there is a specific way to play it. 
This is tabbed on guitar the way i learned it on piano....

Tuning: Standard

Chords Used (In order used):

                  Made-up
   Cadd9(1)       Cadd9(2)         (Made up)F?       G
E [----3------------3-----------------------x----------3---]
B [----3------------3-----------------------1----------3---]
G [----0------------0-----------------------x----------0---]
D [----2------------2-----------------------x----------0---]
A [----3------------0-----------------------0----------2---]
E [----x------------x-----------------------1----------3---]


Part 1
Just play over and over
This is the “rhythm guitar”  part

          Cadd9      Cadd9(2)             F-ish          G
[-----------------------------------------------------------------------]
[----------------------------------------1--1------------3--3-----------]
[----------0--0----------0--0-------------------------------------------]
[----------2--2----------2--2-------------------------------------------]
[---3--3-----------0--0------------------0--0------------2--2-----------]
[-----------------------------------1--1------------3--3----------------]

This is the “solo” or “first” guitar part
[-------------------------------------------------------------------]
[-------------------------------------------------------------------]
[-------------------------------------------------------------------]
[------------------------------0--2--2--2----2--0-----0--2--3-------]
[--3--3--3----3--2--0--2--3-------------------------3---------------]
[-------------------------------------------------------------------]

[------------------------------------------------------------]
[------------------------------------------------------------]
[--0------2--0-----------------------------------------------]
[----------------3--2--0-------------------------------------]
[-----3-------------------3---2--0--------------0--2---(3)---]
[-------------------------------------3--1----3--------------]

You can either switch between part 1 and part 2 or play with a friend. 
Hope you like it and it is useful!
Enjoy!

            
            
Suggest correction
Creating personal tab
Creating personal tab
You can edit any tab online and save it as your Personal.

You can edit, replace or remove any tab part or add personal notes – all changes will be seen only by you.

Personal tabs can be accessed anytime from any device, even offline.
Learn more »
comments
print report bad tab
guest
Wanna post a correction for this tab? Suggest correction