Oops, an error
Loading. Please wait.

Brown Shoes Dont Make It tab

version 1
version 1

Whole song

Interactive

1,952 views 12 this week
no commentswrite comment
1 2 3 4 5
2 more votes to show rating
add to favorites
×
Save as Personal and add changes to this tab that will be seen only by you. Learn more ›
×
You can save this tab as Personal to edit and correct it or add notes. All changes will be seen only by you. Learn more »
launch autoscroll
font size
0
reset
how to read this tab
guitar tuner
edit
Autoscroll
slow
fast
+/-
esc
set tempo
stop
Band/Artist: Frank Zappa
Song: Brown Shoes Don't Make It 




Distorted guitar



                   |--3-|     |--3-|    |--3-|       |--3-|   
     H        Q    Q    E     Q    E    Q    E  Q    Q    E   
E||------------------------|---------------------------------|
B||------------------------|----------4g5----4--L----L----L--|
G||------------------------|----------4g6----4--L----L----L--|
D||------------------------|---------------------------------|
A||------------------------|--4------------------------------|
E||----------------0----2--|-------2-----------------0----2--|


  |--3-|    |--3-|       |--3-|     |--3-|    |--3-|       |--3-|   
  Q    E    Q    E  Q    Q    E     Q    E    Q    E  Q    Q    E   
---------------------------------|---------------------------------|
----------4g5----4--L----L----L--|----------4g5----4--L----L----L--|
----------4g6----4--L----L----L--|----------4g6----4--L----L----L--|
---------------------------------|---------------------------------|
--4------------------------------|--4------------------------------|
-------2-----------------0----2--|-------2-----------------0----2--|


  |--3-|    |--3-|       |--3-|     |--3-|    |--3-|       |--3-|   
  Q    E    Q    E  Q    Q    E     Q    E    Q    E  Q    Q    E   
---------------------------------|---------------------------------|
----------4g5----4--L----L----L--|----------4g5----4--L----L----L--|
----------4g6----4--L----L----L--|----------4g6----4--L----L----L--|
---------------------------------|---------------------------------|
--4------------------------------|--4------------------------------|
-------2-----------------0----2--|-------2-----------------0----2--|


  |--3-|    |--3-|       |--3-|     |--3-|    |--3-|       |--3-|   
  Q    E    Q    E  Q    Q    E     Q    E    Q    E  Q    Q    E   
---------------------------------|---------------------------------|
----------4g5----4--L----L----L--|----------4g5----4--L----L----L--|
----------4g6----4--L----L----L--|----------4g6----4--L----L----L--|
---------------------------------|---------------------------------|
--4------------------------------|--4------------------------------|
-------2-----------------0----2--|-------2-----------------0----2--|


  |--3-|    |--3-|       |--3-|     |--3-|    |--3-|       |--3-|   
  Q    E    Q    E  Q    Q    E     Q    E    Q    E  Q    Q    E   
---------------------------------|---------------------------------|
----------4g5----4--L----L----L--|----------4g5----4--L----L----L--|
----------4g6----4--L----L----L--|----------4g6----4--L----L----L--|
---------------------------------|---------------------------------|
--4------------------------------|--4------------------------------|
-------2-----------------0----2--|-------2-----------------0----2--|


  |--3-|    |--3-|       |--3-|     |--3-|    |--3-|       |--3-|           
  Q    E    Q    E  Q    Q    E     Q    E    Q    E  Q    Q    E           
---------------------------------|---------------------------------|-------|
----------4g5----4--L----L----L--|----------4g5----4--L----L----L--|-------|
----------4g6----4--L----L----L--|----------4g6----4--L----L----L--|-------|
---------------------------------|---------------------------------|-------|
--4------------------------------|--4------------------------------|-------|
-------2-----------------0----2--|-------2-----------------0----2--|-------|


-------|-------|-------|-------|-------|-------|-------|-------|-------|-------|
-------|-------|-------|-------|-------|-------|-------|-------|-------|-------|
-------|-------|-------|-------|-------|-------|-------|-------|-------|-------|
-------|-------|-------|-------|-------|-------|-------|-------|-------|-------|
-------|-------|-------|-------|-------|-------|-------|-------|-------|-------|
-------|-------|-------|-------|-------|-------|-------|-------|-------|-------|


  E  E  E  E  E  E  Q       E  E  E  E  E  E  Q       E  E  E  E  Q    Q     
-------------------------|-------------------------|-----------3--L----5----|
--8--6--8--6--8--6--L----|--5--3--5--3--5--3--L----|--3--5--6---------------|
-------------------------|-------------------------|------------------------|
-------------------------|-------------------------|------------------------|
-------------------------|-------------------------|------------------------|
-------------------------|-------------------------|------------------------|


                 |--3-|     |--3-|    |--3-|       |--3-|   
  Q    Q    Q    Q    E     Q    E    Q    E  Q    Q    E   
--1---------1------------|---------------------------------|
-------1-----------------|----------4g5----4--L----L----L--|
-------------------------|----------4g6----4--L----L----L--|
-------------------------|---------------------------------|
-------------------------|--4------------------------------|
-----------------0----2--|-------2-----------------0----2--|


  |--3-|    |--3-|       |--3-|     |--3-|    |--3-|       |--3-|   
  Q    E    Q    E  Q    Q    E     Q    E    Q    E  Q    Q    E   
---------------------------------|---------------------------------|
----------4g5----4--L----L----L--|----------4g5----4--L----L----L--|
----------4g6----4--L----L----L--|----------4g6----4--L----L----L--|
---------------------------------|---------------------------------|
--4------------------------------|--4------------------------------|
-------2-----------------0----2--|-------2-----------------0----2--|


  |--3-|    |--3-|       |--3-|     |--3-|    |--3-|       |--3-|   
  Q    E    Q    E  Q    Q    E     Q    E    Q    E  Q    Q    E   
---------------------------------|---------------------------------|
----------4g5----4--L----L----L--|----------4g5----4--L----L----L--|
----------4g6----4--L----L----L--|----------4g6----4--L----L----L--|
---------------------------------|---------------------------------|
--4------------------------------|--4------------------------------|
-------2-----------------0----2--|-------2-----------------0----2--|


  |--3-|    |--3-|       |--3-|     |--3-|    |--3-|       |--3-|   
  Q    E    Q    E  Q    Q    E     Q    E    Q    E  Q    Q    E   
---------------------------------|---------------------------------|
----------4g5----4--L----L----L--|----------4g5----4--L----L----L--|
----------4g6----4--L----L----L--|----------4g6----4--L----L----L--|
---------------------------------|---------------------------------|
--4------------------------------|--4------------------------------|
-------2-----------------0----2--|-------2-----------------0----2--|


  |--3-|    |--3-|       |--3-|     |--3-|    |--3-|       |--3-|   
  Q    E    Q    E  Q    Q    E     Q    E    Q    E  Q    Q    E   
---------------------------------|---------------------------------|
----------4g5----4--L----L----L--|----------4g5----4--L----L----L--|
----------4g6----4--L----L----L--|----------4g6----4--L----L----L--|
---------------------------------|---------------------------------|
--4------------------------------|--4------------------------------|
-------2-----------------0----2--|-------2-----------------0----2--|


  |--3-|    |--3-|       |--3-|     |--3-|    |--3-|       |--3-|   
  Q    E    Q    E  Q    Q    E     Q    E    Q    E  Q    Q    E   
---------------------------------|---------------------------------|
----------4g5----4--L----L----L--|----------4g5----4--L----L----L--|
----------4g6----4--L----L----L--|----------4g6----4--L----L----L--|
---------------------------------|---------------------------------|
--4------------------------------|--4------------------------------|
-------2-----------------0----2--|-------2-----------------0----2--|


  |--3-|    |--3-|       |--3-|     |--3-|    |--3-|       |--3-|   
  Q    E    Q    E  Q    Q    E     Q    E    Q    E  Q    Q    E   
---------------------------------|---------------------------------|
----------4g5----4--L----L----L--|----------4g5----4--L----L----L--|
----------4g6----4--L----L----L--|----------4g6----4--L----L----L--|
---------------------------------|---------------------------------|
--4------------------------------|--4------------------------------|
-------2-----------------0----2--|-------2-----------------0----2--|


  |--3-|    |--3-|       |--3-|     |--3-|    |--3-|       |--3-|   
  Q    E    Q    E  Q    Q    E     Q    E    Q    E  Q    Q    E   
---------------------------------|---------------------------------|
----------4g5----4--L----L----L--|----------4g5----4--L----L----L--|
----------4g6----4--L----L----L--|----------4g6----4--L----L----L--|
---------------------------------|---------------------------------|
--4------------------------------|--4------------------------------|
-------2-----------------0----2--|-------2-----------------0----2--|


  |--3-|    |--3-|       |--3-|                                       
  Q    E    Q    E  Q    Q    E     W                                 
---------------------------------|-------------------|-------|-------|
----------4g5----4--L----L----L--|-------------------|-------|-------|
----------4g6----4--L----L----L--|--3----------------|-------|-------|
---------------------------------|--0----------------|-------|-------|
--4------------------------------|--2----------------|-------|-------|
-------2-----------------0----2--|--1----------------|-------|-------|


  H        Q       H.              H        Q       H.            
----------------|---------------|----------------|---------------|
----------------|---------------|----------------|---------------|
----------------|---------------|----------------|---------------|
-----------0----|--0------------|-----------0----|--0------------|
--2--------6----|--2------------|--2--------6----|--2------------|
--6--------L----|--6------------|--6--------L----|--6------------|


  H        Q       H.              H        Q       H.            
----------------|---------------|----------------|---------------|
----------------|---------------|----------------|---------------|
----------------|---------------|----------------|---------------|
-----------0----|--0------------|-----------0----|--0------------|
--2--------6----|--2------------|--2--------6----|--2------------|
--6--------L----|--6------------|--6--------L----|--6------------|


  H        Q       H.              H        Q       H.            
----------------|---------------|----------------|---------------|
----------------|---------------|----------------|---------------|
----------------|---------------|----------------|---------------|
-----------0----|--0------------|-----------0----|--0------------|
--2--------6----|--2------------|--2--------6----|--2------------|
--6--------L----|--6------------|--6--------L----|--6------------|


  H        Q       H        Q       H.              H.            
----------------|----------------|---------------|---------------|
----------------|----------------|---------------|---------------|
----------------|----------------|---------------|---------------|
-----------0----|--0-------------|--6------------|--6------------|
--2--------6----|--2-------------|--4------------|--4------------|
--6--------L----|--6-------------|---------------|---------------|


  H.              H.              E  E  Q    Q                             
---------------|---------------|------------------|-------|-------|-------|
---------------|---------------|------------------|-------|-------|-------|
---------------|---------------|------------------|-------|-------|-------|
--6------------|--6------------|------------------|-------|-------|-------|
--4------------|--4------------|--5---------------|-------|-------|-------|
---------------|---------------|------------------|-------|-------|-------|


-------|-------|-------|-------|-------|-------|-------|-------|-------|-------|
-------|-------|-------|-------|-------|-------|-------|-------|-------|-------|
-------|-------|-------|-------|-------|-------|-------|-------|-------|-------|
-------|-------|-------|-------|-------|-------|-------|-------|-------|-------|
-------|-------|-------|-------|-------|-------|-------|-------|-------|-------|
-------|-------|-------|-------|-------|-------|-------|-------|-------|-------|


-------|-------|-------|-------|-------|-------|-------|-------|-------|-------|
-------|-------|-------|-------|-------|-------|-------|-------|-------|-------|
-------|-------|-------|-------|-------|-------|-------|-------|-------|-------|
-------|-------|-------|-------|-------|-------|-------|-------|-------|-------|
-------|-------|-------|-------|-------|-------|-------|-------|-------|-------|
-------|-------|-------|-------|-------|-------|-------|-------|-------|-------|


-------|-------|-------|-------|-------|-------|-------|
-------|-------|-------|-------|-------|-------|-------|
-------|-------|-------|-------|-------|-------|-------|
-------|-------|-------|-------|-------|-------|-------|
-------|-------|-------|-------|-------|-------|-------|
-------|-------|-------|-------|-------|-------|-------|


                |--3-|     |--3-|  |--3-|  |--3-|  |--3-|   
  H        Q    Q    E     Q    E  Q    E  Q    E  Q    E   
---------------------7--|--L----7--5----3----------1----3--|
---------------------0--|--L----0----------6----3----------|
---------------------0--|--L----0--2----0---------------0--|
---------------------0--|--L----0--3----0--3----0--3----0--|
------------------------|----------3----2--3----2--3----2--|
------------------------|------------------5----3--5-------|


                |--3-|     |--3-|  |--3-|  |--3-|  |--3-|     ---   ---   --- 
  H        Q    Q    E     Q    E  Q    E  Q    E  Q    E                     
---------------------7--|--L----7--5----3----------1----3--|-----|-----|-----|
---------------------0--|--L----0----------6----3----------|-----|-----|-----|
---------------------0--|--L----0--2----0---------------0--|-----|-----|-----|
---------------------0--|--L----0--3----0--3----0--3----0--|-----|-----|-----|
------------------------|----------3----2--3----2--3----2--|-----|-----|-----|
------------------------|------------------5----3--5-------|-----|-----|-----|


  ---                  |--3--|                                                  
        Q    Q    Q    E  E  E     E  E  E  E  E  E  E  E     W                 
-----|--------------------------|--------------------------|-------------------|
-----|-----------------------5--|--2--------2--L--------2--|-------------------|
-----|--------------------6-----|-----1--3--------1--3-----|-------------------|
-----|-----------------6--------|--------------------------|-------------------|
-----|--------------------------|--------------------------|-------------------|
-----|--------------------------|--------------------------|-------------------|


  E  E  E  E  E  E  E  E     W                   E  E  E  E  E  E  E  E   
--------------------------|-------------------|--------------------------|
--2--------2--L--------2--|-------------------|--------------------------|
-----1--3--------1--3-----|-------------------|--3-----0--3--L-----0--3--|
--------------------------|-------------------|-----3-----------3--------|
--------------------------|-------------------|--------------------------|
--------------------------|-------------------|--------------------------|


  E  E  E  E  E  E  E  E     E  E  E  E  E  E  E  E     E  E  Q    H         
--------------------------|--------------------------|----------------------|
--------------------------|--------------------------|----------------------|
--3-----0--3--L-----0--3--|--3-----0--3--L-----0--3--|--3-------------------|
-----3-----------3--------|-----3-----------3--------|----------------------|
--------------------------|--------------------------|----------------------|
--------------------------|--------------------------|----------------------|


------|-----------|-----------|-----------|-----------|-----------|-----------|
------|-----------|-----------|-----------|-----------|-----------|-----------|
------|-----------|-----------|-----------|-----------|-----------|-----------|
------|-----------|-----------|-----------|-----------|-----------|-----------|
------|-----------|-----------|-----------|-----------|-----------|-----------|
------|-----------|-----------|-----------|-----------|-----------|-----------|


-----------|-----------|-----------|-----------|-----------|-----------|
-----------|-----------|-----------|-----------|-----------|-----------|
-----------|-----------|-----------|-----------|-----------|-----------|
-----------|-----------|-----------|-----------|-----------|-----------|
-----------|-----------|-----------|-----------|-----------|-----------|
-----------|-----------|-----------|-----------|-----------|-----------|


-----------|-----------|-----------|-----------|-----------|-----------|
-----------|-----------|-----------|-----------|-----------|-----------|
-----------|-----------|-----------|-----------|-----------|-----------|
-----------|-----------|-----------|-----------|-----------|-----------|
-----------|-----------|-----------|-----------|-----------|-----------|
-----------|-----------|-----------|-----------|-----------|-----------|


-----------|-----------|-----------|-----------|-----------|-----------|
-----------|-----------|-----------|-----------|-----------|-----------|
-----------|-----------|-----------|-----------|-----------|-----------|
-----------|-----------|-----------|-----------|-----------|-----------|
-----------|-----------|-----------|-----------|-----------|-----------|
-----------|-----------|-----------|-----------|-----------|-----------|


-----------|-----------|-----------|-----------|-----------|-----------|
-----------|-----------|-----------|-----------|-----------|-----------|
-----------|-----------|-----------|-----------|-----------|-----------|
-----------|-----------|-----------|-----------|-----------|-----------|
-----------|-----------|-----------|-----------|-----------|-----------|
-----------|-----------|-----------|-----------|-----------|-----------|


-----------|-----------|-----------|-----------|-----------|-----------|
-----------|-----------|-----------|-----------|-----------|-----------|
-----------|-----------|-----------|-----------|-----------|-----------|
-----------|-----------|-----------|-----------|-----------|-----------|
-----------|-----------|-----------|-----------|-----------|-----------|
-----------|-----------|-----------|-----------|-----------|-----------|


-----------|-----------|-----------|-----------|-----------|-----------|
-----------|-----------|-----------|-----------|-----------|-----------|
-----------|-----------|-----------|-----------|-----------|-----------|
-----------|-----------|-----------|-----------|-----------|-----------|
-----------|-----------|-----------|-----------|-----------|-----------|
-----------|-----------|-----------|-----------|-----------|-----------|


-----------|-----------|-----------|-----------|-----------|-----------|
-----------|-----------|-----------|-----------|-----------|-----------|
-----------|-----------|-----------|-----------|-----------|-----------|
-----------|-----------|-----------|-----------|-----------|-----------|
-----------|-----------|-----------|-----------|-----------|-----------|
-----------|-----------|-----------|-----------|-----------|-----------|


-----------|-----------|-----------|-----------|-----------|-----------|
-----------|-----------|-----------|-----------|-----------|-----------|
-----------|-----------|-----------|-----------|-----------|-----------|
-----------|-----------|-----------|-----------|-----------|-----------|
-----------|-----------|-----------|-----------|-----------|-----------|
-----------|-----------|-----------|-----------|-----------|-----------|


-----------|-----------|-----------|-----------|-----------|-----------|
-----------|-----------|-----------|-----------|-----------|-----------|
-----------|-----------|-----------|-----------|-----------|-----------|
-----------|-----------|-----------|-----------|-----------|-----------|
-----------|-----------|-----------|-----------|-----------|-----------|
-----------|-----------|-----------|-----------|-----------|-----------|


-----------|------|------|------|------|------|------|------|------|------|
-----------|------|------|------|------|------|------|------|------|------|
-----------|------|------|------|------|------|------|------|------|------|
-----------|------|------|------|------|------|------|------|------|------|
-----------|------|------|------|------|------|------|------|------|------|
-----------|------|------|------|------|------|------|------|------|------|


------|------|------|------|------|------|------|------|------|------|------|
------|------|------|------|------|------|------|------|------|------|------|
------|------|------|------|------|------|------|------|------|------|------|
------|------|------|------|------|------|------|------|------|------|------|
------|------|------|------|------|------|------|------|------|------|------|
------|------|------|------|------|------|------|------|------|------|------|


------|------|------|------|------|------|------|------|------|------|------|
------|------|------|------|------|------|------|------|------|------|------|
------|------|------|------|------|------|------|------|------|------|------|
------|------|------|------|------|------|------|------|------|------|------|
------|------|------|------|------|------|------|------|------|------|------|
------|------|------|------|------|------|------|------|------|------|------|


------||
------||
------||
------||
------||
------||










clean guitar



E||-------|-------|-------|-------|-------|-------|-------|-------|-------|
B||-------|-------|-------|-------|-------|-------|-------|-------|-------|
G||-------|-------|-------|-------|-------|-------|-------|-------|-------|
D||-------|-------|-------|-------|-------|-------|-------|-------|-------|
A||-------|-------|-------|-------|-------|-------|-------|-------|-------|
E||-------|-------|-------|-------|-------|-------|-------|-------|-------|


-------|-------|-------|-------|-------|-------|-------|-------|-------|-------|
-------|-------|-------|-------|-------|-------|-------|-------|-------|-------|
-------|-------|-------|-------|-------|-------|-------|-------|-------|-------|
-------|-------|-------|-------|-------|-------|-------|-------|-------|-------|
-------|-------|-------|-------|-------|-------|-------|-------|-------|-------|
-------|-------|-------|-------|-------|-------|-------|-------|-------|-------|


-------|-------|-------|-------|-------|-------|-------|-------|-------|-------|
-------|-------|-------|-------|-------|-------|-------|-------|-------|-------|
-------|-------|-------|-------|-------|-------|-------|-------|-------|-------|
-------|-------|-------|-------|-------|-------|-------|-------|-------|-------|
-------|-------|-------|-------|-------|-------|-------|-------|-------|-------|
-------|-------|-------|-------|-------|-------|-------|-------|-------|-------|


-------|-------|-------|-------|-------|-------|-------|-------|-------|-------|
-------|-------|-------|-------|-------|-------|-------|-------|-------|-------|
-------|-------|-------|-------|-------|-------|-------|-------|-------|-------|
-------|-------|-------|-------|-------|-------|-------|-------|-------|-------|
-------|-------|-------|-------|-------|-------|-------|-------|-------|-------|
-------|-------|-------|-------|-------|-------|-------|-------|-------|-------|


-------|-------|-------|-------|-------|-------|-------|-------|-------|-------|
-------|-------|-------|-------|-------|-------|-------|-------|-------|-------|
-------|-------|-------|-------|-------|-------|-------|-------|-------|-------|
-------|-------|-------|-------|-------|-------|-------|-------|-------|-------|
-------|-------|-------|-------|-------|-------|-------|-------|-------|-------|
-------|-------|-------|-------|-------|-------|-------|-------|-------|-------|


-------|-------|-------|-------|-------|-------|-------|-------|-------|-------|
-------|-------|-------|-------|-------|-------|-------|-------|-------|-------|
-------|-------|-------|-------|-------|-------|-------|-------|-------|-------|
-------|-------|-------|-------|-------|-------|-------|-------|-------|-------|
-------|-------|-------|-------|-------|-------|-------|-------|-------|-------|
-------|-------|-------|-------|-------|-------|-------|-------|-------|-------|


          ^                               ^                             
          H.              H.              H.              H.            
-------|--7------------|--L------------|--7------------|--L------------|
-------|--7------------|--L------------|--7------------|--L------------|
-------|--8------------|--L------------|--8------------|--L------------|
-------|--9------------|--L------------|--9------------|--L------------|
-------|--9------------|--L------------|--9------------|--L------------|
-------|--7------------|--L------------|--7------------|--L------------|


  ^                               ^                               ^             
  H.              H.              H.              H.              H.            
--7------------|--L------------|--7------------|--L------------|--7------------|
--7------------|--L------------|--7------------|--L------------|--7------------|
--8------------|--L------------|--8------------|--L------------|--8------------|
--9------------|--L------------|--9------------|--L------------|--9------------|
--9------------|--L------------|--9------------|--L------------|--9------------|
--7------------|--L------------|--7------------|--L------------|--7------------|


                  ^                                                         
  H.              W                                                         
--L------------|--7----------------|-------|-------|-------|-------|-------|
--L------------|--7----------------|-------|-------|-------|-------|-------|
--L------------|--8----------------|-------|-------|-------|-------|-------|
--L------------|--9----------------|-------|-------|-------|-------|-------|
--L------------|--9----------------|-------|-------|-------|-------|-------|
--L------------|--7----------------|-------|-------|-------|-------|-------|


-------|-------|-------|-------|-------|-------|-------|-------|-------|-------|
-------|-------|-------|-------|-------|-------|-------|-------|-------|-------|
-------|-------|-------|-------|-------|-------|-------|-------|-------|-------|
-------|-------|-------|-------|-------|-------|-------|-------|-------|-------|
-------|-------|-------|-------|-------|-------|-------|-------|-------|-------|
-------|-------|-------|-------|-------|-------|-------|-------|-------|-------|


-------|-------|-------|-------|-------|-------|-------|-------|-------|-------|
-------|-------|-------|-------|-------|-------|-------|-------|-------|-------|
-------|-------|-------|-------|-------|-------|-------|-------|-------|-------|
-------|-------|-------|-------|-------|-------|-------|-------|-------|-------|
-------|-------|-------|-------|-------|-------|-------|-------|-------|-------|
-------|-------|-------|-------|-------|-------|-------|-------|-------|-------|


-------|-------|-------|-------|-------|-------|-------|-------|-------|-------|
-------|-------|-------|-------|-------|-------|-------|-------|-------|-------|
-------|-------|-------|-------|-------|-------|-------|-------|-------|-------|
-------|-------|-------|-------|-------|-------|-------|-------|-------|-------|
-------|-------|-------|-------|-------|-------|-------|-------|-------|-------|
-------|-------|-------|-------|-------|-------|-------|-------|-------|-------|


                                                  ^      ^       
                                                  Q.     Q.      
-------|-------|-------|-------|-------|-------|----------------|
-------|-------|-------|-------|-------|-------|--1------3------|
-------|-------|-------|-------|-------|-------|--0------2------|
-------|-------|-------|-------|-------|-------|--2------4------|
-------|-------|-------|-------|-------|-------|----------------|
-------|-------|-------|-------|-------|-------|----------------|


  E  E  E  E  E  E     E  E  E  Q    E     E  E  E  E  E   E   
--------------------|-------------------|---------------------|
--1--1--1--1-----0--|-------------------|---------------------|
--0--0--0--0--2--0--|--2--2--2--2----2--|--4--4--4--4--5---7--|
--2--2--2--2--3--2--|--3--3--3--3----3--|--5--5--5--5--7---9--|
--------------5-----|--5--5--5--5----5--|--7--7--7--7--8--10--|
--------------------|-------------------|---------------------|


  E  E  E  E  E  E     E  E  E  Q    E     E  E  E  Q    E   
--------------------|-------------------|-------------------|
--------------------|-------------------|-------------------|
--5--5--5--5--4--2--|--4--4--4--4----0--|--2--2--2--2-------|
--7--7--7--7--5--3--|--5--5--5--5----2--|--3--3--3--3----5--|
--8--8--8--8--7--5--|--7--7--7--7----3--|--5--5--5--5----7--|
--------------------|-------------------|----------------8--|


  E  E  E   E   E   E      E   E   E  Q.        E  E  E  E  S S E   
-----------------------|---------------------|--4--4--4--4--4-4-4--|
-----------------------|---------------------|--5--5--5--5--5-L-5--|
-----------------------|--------------9------|--4--4--4--4--4-L-4--|
--8--8--8--10--10--10--|--12--12--12--9------|---------------------|
--8--8--8--10--10--10--|--12--12--12--7------|---------------------|
--6--6--6---8---8---8--|--10--10--10---------|---------------------|


  E  E  E  E  S S E     E  E  E  E  S S E     E  E  E  E  S S E   
--4--4--4--4--4-4-4--|--4--4--4--4--4-4-4--|--4--4--4--4--4-4-4--|
--5--5--5--5--5-L-5--|--5--5--5--5--5-L-5--|--5--5--5--5--5-L-5--|
--4--4--4--4--4-L-4--|--4--4--4--4--4-L-4--|--4--4--4--4--4-L-4--|
---------------------|---------------------|---------------------|
---------------------|---------------------|---------------------|
---------------------|---------------------|---------------------|


  E  E  E  E  S S E     E  E  E  E  S S E     E  E  E  E  S S E             
--4--4--4--4--4-4-4--|--4--4--4--4--4-4-4--|--4--4--4--4--4-4-4--|---------|
--5--5--5--5--5-L-5--|--5--5--5--5--5-L-5--|--5--5--5--5--5-L-5--|---------|
--4--4--4--4--4-L-4--|--4--4--4--4--4-L-4--|--4--4--4--4--4-L-4--|---------|
---------------------|---------------------|---------------------|---------|
---------------------|---------------------|---------------------|---------|
---------------------|---------------------|---------------------|---------|


---------|---------|---------|---------|---------|---------|---------|---------|
---------|---------|---------|---------|---------|---------|---------|---------|
---------|---------|---------|---------|---------|---------|---------|---------|
---------|---------|---------|---------|---------|---------|---------|---------|
---------|---------|---------|---------|---------|---------|---------|---------|
---------|---------|---------|---------|---------|---------|---------|---------|


                                                                  |--3-|   
                                                    H        Q    Q    E   
---------|---------|---------|---------|---------|----------------3----3--|
---------|---------|---------|---------|---------|----------------3----3--|
---------|---------|---------|---------|---------|----------------4----4--|
---------|---------|---------|---------|---------|----------------5----5--|
---------|---------|---------|---------|---------|------------------------|
---------|---------|---------|---------|---------|------------------------|


       |--3-|       |--3-|          |--3-|             
  Q    Q    E  Q    Q    E     Q    Q    E  Q    Q     
--3------------5------------|--1-----------------1----|
--3------------6------------|--1------------0----3----|
--4----x----x--7----x----x--|--2----x----x--0----2----|
--5----x----x--7----x----x--|--3----x----x--2----0----|
---------------5------------|---------------2---------|
----------------------------|-------------------------|


  |--3-|  |--3-|  |--3-|  |--3-|     |--3-|  |--3-|  |--3-|  |--3-|   
  Q    E  Q    E  Q    E  Q    E     Q    E  Q    E  Q    E  Q    E   
--3----3--5----3--3----3--5----3--|--3----3--5----3--3----3--5----3--|
--5----5--5----5--5----5--5----5--|--5----5--5----5--5----5--5----5--|
--5----5--5----5--5----5--5----5--|--5----5--5----5--5----5--5----5--|
--5----5--5----5--5----5--5----5--|--5----5--5----5--5----5--5----5--|
----------------------------------|----------------------------------|
----------------------------------|----------------------------------|


       |--3-|       |--3-|                                 |--3-|             
  Q    Q    E  Q    Q    E     Q    Q    Q    Q       Q    Q    E  Q    Q     
--3------------5------------|--1----0----1----3----|--3----5----3--3----5----|
--3------------6------------|--1----0----3----5----|--5----5----5--5----5----|
--4----x----x--7----x----x--|--2----0----2----5----|--5----5----5--5----5----|
--5----x----x--7----x----x--|--3----2----0----5----|--5----5----5--5----5----|
---------------5------------|-----------------3----|-------------------------|
----------------------------|----------------------|-------------------------|


       |--3-|  |--3-|                                                
  Q    Q    E  Q    E  Q       W                                     
--3----5----3--L----5--L----|--5----------------|-------------------|
--5----5----5--L----5--L----|--5----------------|-------------------|
--5----5----5--L----5--L----|--5----------------|-------------------|
--5----5----5--L----5--L----|--5----------------|-------------------|
----------------------------|-------------------|-------------------|
----------------------------|-------------------|-------------------|


-------------------|-------------------|-------------------|-------------------|
-------------------|-------------------|-------------------|-------------------|
-------------------|-------------------|-------------------|-------------------|
-------------------|-------------------|-------------------|-------------------|
-------------------|-------------------|-------------------|-------------------|
-------------------|-------------------|-------------------|-------------------|


-------------------|-------------------|-------------------|-------------------|
-------------------|-------------------|-------------------|-------------------|
-------------------|-------------------|-------------------|-------------------|
-------------------|-------------------|-------------------|-------------------|
-------------------|-------------------|-------------------|-------------------|
-------------------|-------------------|-------------------|-------------------|


-------------------|-------------------|-------------------|-------------------|
-------------------|-------------------|-------------------|-------------------|
-------------------|-------------------|-------------------|-------------------|
-------------------|-------------------|-------------------|-------------------|
-------------------|-------------------|-------------------|-------------------|
-------------------|-------------------|-------------------|-------------------|


-------------------|-------------------|-------------------|-------------------|
-------------------|-------------------|-------------------|-------------------|
-------------------|-------------------|-------------------|-------------------|
-------------------|-------------------|-------------------|-------------------|
-------------------|-------------------|-------------------|-------------------|
-------------------|-------------------|-------------------|-------------------|


-------------------|-------------------|-------------------|
-------------------|-------------------|-------------------|
-------------------|-------------------|-------------------|
-------------------|-------------------|-------------------|
-------------------|-------------------|-------------------|
-------------------|-------------------|-------------------|


  E  E  E  E  E  E  E  E     E  E  E  E  E  E.                       
--------------------------|---------------------|-------------------|
-----------------------0--|--1--0---------------|-------------------|
--------------0--1--2-----|--------2--1--0------|-------------------|
-----0--2--3--------------|-----------------2---|-------------------|
--3-----------------------|---------------------|-------------------|
--------------------------|---------------------|-------------------|


  H.           E  E     E  E  E  E  E.  S E  E      Q     Q     Q     Q     
---------------0--0--|-----------------------1--|--12----10----10-----8----|
---------------------|--6--4--6--7--6-----0-----|--13----11----11-----9----|
---------------------|--6--L--6--L--6-----------|--12----10----10-----8----|
---------------------|--6--L--6--L--6-----------|--14----12----12----10----|
---------------------|--8--L--8--L--8-----------|--------------------------|
---------------------|--------------------------|--------------------------|


   Q    Q    Q    Q       Q    Q    Q     Q       W                 
---8----6----6----5----|--5----3----3-----8----|-------------------|
---9----7----7----7----|--7----5----5-----8----|--5----------------|
---8----6----6----7----|--7----5----5-----9----|--5----------------|
--10----8----8----7----|--7----5----5----10----|--9----------------|
-----------------------|-----------------------|--7----------------|
-----------------------|-----------------------|--5----------------|


                      ^                                                         
  W                   E  H           E  H           E  H           E  H         
-------------------|--0--L--------|--L--L--------|--L--L--------|--L--L--------|
--L----------------|--0--L--------|--L--L--------|--L--L--------|--L--L--------|
--L----------------|--2--L--------|--L--L--------|--L--L--------|--L--L--------|
--L----------------|--2--L--------|--L--L--------|--L--L--------|--L--L--------|
--L----------------|--0--L--------|--L--L--------|--L--L--------|--L--L--------|
--L----------------|--------------|--------------|--------------|--------------|


  ^                                                           ^            
  E  H           E  H           E  H           E  H           E  H         
--0--L--------|--L--L--------|--L--L--------|--L--L--------|--0--L--------|
--0--L--------|--L--L--------|--L--L--------|--L--L--------|--0--L--------|
--2--L--------|--L--L--------|--L--L--------|--L--L--------|--2--L--------|
--2--L--------|--L--L--------|--L--L--------|--L--L--------|--2--L--------|
--0--L--------|--L--L--------|--L--L--------|--L--L--------|--0--L--------|
--------------|--------------|--------------|--------------|--------------|


                                               ^                           
  E  H           E  H           E  H           E  H           E  H         
--L--L--------|--L--L--------|--L--L--------|--0--L--------|--L--L--------|
--L--L--------|--L--L--------|--L--L--------|--0--L--------|--L--L--------|
--L--L--------|--L--L--------|--L--L--------|--2--L--------|--L--L--------|
--L--L--------|--L--L--------|--L--L--------|--2--L--------|--L--L--------|
--L--L--------|--L--L--------|--L--L--------|--0--L--------|--L--L--------|
--------------|--------------|--------------|--------------|--------------|


                                ^                                          
  E  H           E  H           E  H           E  H           E  H         
--L--L--------|--L--L--------|--0--L--------|--L--L--------|--L--L--------|
--L--L--------|--L--L--------|--0--L--------|--L--L--------|--L--L--------|
--L--L--------|--L--L--------|--2--L--------|--L--L--------|--L--L--------|
--L--L--------|--L--L--------|--2--L--------|--L--L--------|--L--L--------|
--L--L--------|--L--L--------|--0--L--------|--L--L--------|--L--L--------|
--------------|--------------|--------------|--------------|--------------|


                 ^                                                          
  E  H           E  H           E  H           E  H           E  H          
--L--L--------|--0--L--------|--L--L--------|--L--L--------|--L--L--------||
--L--L--------|--0--L--------|--L--L--------|--L--L--------|--L--L--------||
--L--L--------|--2--L--------|--L--L--------|--L--L--------|--L--L--------||
--L--L--------|--2--L--------|--L--L--------|--L--L--------|--L--L--------||
--L--L--------|--0--L--------|--L--L--------|--L--L--------|--L--L--------||
--------------|--------------|--------------|--------------|--------------||





Duration Legend
---------------
W - whole
H - half
Q - quarter
E - 8th
S - 16th
T - 32nd
X - 64th
. - note dotted
|-n-|  - n-tuplets


Tablature Legend
----------------
L - tied note
x - dead note
g - grace note
(n) - ghost note
> - accentuded note
NH - natural harmonic
AH - artificial harmonic
TH - tapped harmonic
SH - semi harmonic
PH - pitch harmonic
h - hammer on
p - pull off
b - bend
br - bendRelease
pb - preBend
pbr - preBendRelease
brb - bendReleaseBend
\n/ - tremolo bar dip
\n - tremolo bar dive
-/n - tremolo bar Release up
/n\ - tremolo bar inverted dip
/n - tremolo bar return
-\n - tremolo bar Release down
S - shift slide
s - legato slide
/ -  slide into from below or out of upwards
\ -  slide into from above or out of downwards
~ - vibrato
W - wide vibrato
tr - trill
TP - tremolo picking
T - tapping
S - slap
P - pop
< - fade in
^ - brush up
v - brush down

            
            
Suggest correction
Creating personal tab
Creating personal tab
You can edit any tab online and save it as your Personal.

You can edit, replace or remove any tab part or add personal notes – all changes will be seen only by you.

Personal tabs can be accessed anytime from any device, even offline.
Learn more »
Give kudos to tab author, rate the tab!
1 2 3 4 5
comments
print report bad tab
guest
Wanna post a correction for this tab? Suggest correction