Oops, an error
Loading. Please wait.

Cosmik Debris tab

version 1
version 1

Whole song

Interactive

30,679 views 69 this week
2 commentsread comments
1 2 3 4 5
x 9
add to favorites
×
Save as Personal and add changes to this tab that will be seen only by you. Learn more ›
×
You can save this tab as Personal to edit and correct it or add notes. All changes will be seen only by you. Learn more »
launch autoscroll
font size
0
reset
how to read this tab
guitar tuner
backing track
0:00
0:00
edit
Autoscroll
slow
fast
+/-
esc
set tempo
stop
Author
Unregistered
Band/Artist: Frank Zappa
Song: Cosmik Debris


Gtr I (E A D G B E) - 'Guitar'
Gtr II (E A D G B E) - 'Piano'
Gtr III (E A D G B E) - 'Sax'
Gtr IV (E A D G B E) - 'Marimba'
Gtr V (E A D G B E) - 'Guitar'


[Intro]

  Slowly Q=76
  C7+9                                               Bb
 4/4
  Gtr I
   |--3--| |--3--|    |--3--|         |3-|    |-3--|
   E. S  E Q    +E    E. S  E Q     a Q  E  a E. S E Q              Q
e|--------------------------------|--------------------------------------------|
B|--------------------------------|--------------------------------------------|
G|----------8b9==(8)r-------------|--------------------------------------------|
D|-10--8-10-----------10--8-------|--------------------------------------------|
A|--------------------------10-8--|-10s8s10-10s8--6----------------------------|
E|--------------------------------|-----------------8-6------------------------|
 |
 | Gtr II
 |                                                          |3-|     |3|  |3-|
 |  W                                  H              E  a  E  S  a  E S  E  S
e|--------------------------------|--------------------------------------------|
B|--------------------------------|---------------------------11---------------|
G|--------------------------------|---------------------10s12----12s10-8-------|
D|--------------------------------|--------------------------------------10----|
A|--------------------------------|-----------------------------------------10-|
E|--------------------------------|--------------------------------------------|


[Verse]

  Bbsus2     C7+9
  Gtr II
   |3|     |3|                       |3-|     |3|  |3-|
   S E +E  Q E +H       +H     E  a  E  S  a  E S  E  S
e|---------------------|---------------------------------|
B|------------8-(8)----|-(8)------------11---------------|
G|------------8-(8)----|-(8)------10s12----12s10-8-------|
D|-10-8-(8)---8-(8)----|-(8)-----------------------10----|
A|------------7-(7)----|-(7)--------------------------10-|
E|---------------------|---------------------------------|


  Bbsus2     C7+9
   |3|     |3|                       |3-|     |3|  |3-|
   S E +E  Q E +H       +H     E  a  E  S  a  E S  E  S
e|---------------------|---------------------------------|
B|------------8-(8)----|-(8)------------11---------------|
G|------------8-(8)----|-(8)------10s12----12s10-8-------|
D|-10-8-(8)---8-(8)----|-(8)-----------------------10----|
A|------------7-(7)----|-(7)--------------------------10-|
E|---------------------|---------------------------------|


  Bbsus2     C7+9
   |3|     |3|                       |3-|     |3|  |3-|
   S E +E  Q E +H       +H     E  a  E  S  a  E S  E  S
e|---------------------|---------------------------------|
B|------------8-(8)----|-(8)------------11---------------|
G|------------8-(8)----|-(8)------10s12----12s10-8-------|
D|-10-8-(8)---8-(8)----|-(8)-----------------------10----|
A|------------7-(7)----|-(7)--------------------------10-|
E|---------------------|---------------------------------|


  Bb         C7+9
   |3|     |3|                 |-3--|  |-3-|
   S E +E  Q E +H       +H     E  E E  E e E
e|---------------------|----------------------||
B|------------8-(8)----|-(8)------------------||
G|------------8-(8)----|-(8)--------------8---||
D|-10-8-(8)---8-(8)----|-(8)---------8-10-----||
A|------------7-(7)----|-(7)------10----------||
E|---------------------|----------------------||


[Chorus]

    Cm7Dm7 Eb6Dm7N.C.      CmDm7Eb6   Dm7CmDm7CmDm7
            |3-|                            |-3--|
    Q   Q   Q  E Q    Q  E S  S  S  S  S S  E E  E
e||------------------|------------------------------|
B||o-8--10--11-10----|------8-10-11-11-10-8-10-8-10-|
G||--8--10--12-10----|------8-10-12-12-10-8-10-8-10-|
D||--8--10--10-10----|------8-10-10-10-10-8-10-8-10-|
A||o-----------------|------------------------------|
E||--8--10--11-10----|------8-10-11-11-10-8-10-8-10-|


    C7
  Gtr V
                                           |3-|  |3-|  |3-|  |3-| |3|
    W                                 E    E  S  E  S  E  S  E  S E S +Q
e|---------------------------------|------/11----------12-------10---8-(8)-----|
B|---------------------------------|----------11-------------------------------|
G|---------------------------------|-------------10-11----11-10----8-----------|
D|---------------------------------|-------------------------------------------|
A|---------------------------------|-------------------------------------------|
E|---------------------------------|-------------------------------------------|
 |
 | Gtrs III, IV
 |                                                                   TP TP
 |                                          |3-|  |3-|  |3-|  |3-| |3|
 |   W                                 E    E  S  E  S  E  S  E  S E S  Q
e|---------------------------------|-------------------------------------------|
B|---------------------------------|-------------------------------------------|
G|---------------------------------|-------/8-----------9--------7---5--5------|
D|---------------------------------|-----------8-------------------------------|
A|---------------------------------|--------------8--9-----9--8----6-----------|
E|---------------------------------|-------------------------------------------|
 |
 | Gtr II
 |   |3-|  |--3---|        |--3--|                                      |-3-|
 | a Q  E  E  E a E +Q   a E  E  E   a H.                               E E E
e|----------------8-(8)------------|-------------------------------------------|
B|---8------------8-(8)------------|---8-------------------------------10p8----|
G|-8h9----10-10-8h9-(9)--8h9-------|-8h9-------------------------------10p8----|
D|---8----10-10---8-(8)------10----|---8-------------------------------10------|
A|-----10-----------------------10-|-------------------------------------------|
E|---8-----------------------------|---8---------------------------------------|


                                   1.
  Cm7Dm7 Eb6Dm7  G7sus4             C7+9
  Gtr II                            Gtr I
          |3-| |3-|                  |--3--|     |--3--|
  Q   Q   Q  E Q  E    +W            E. S  E Q   E. S  E Q
e|-----------------8-|--(8)--------|-------------------------|
B|-8--10--11-10----8-|--(8)--------|-------------------------|
G|-8--10--12-10---10-|-(10)--------|----------8--------------|
D|-8--10--10-10------|-------------|-10--8-10----10--8-------|
A|----------------10-|-(10)--------|-------------------10-8--|
E|-8--10--11-10------|-------------|-------------------------|


[Verse]
                    Bb                       Bbsus2     C7+9
  Gtr I                                      Gtr V
                                                                    ~~~~~~~~
     |3-|    |-3--|                                        |3-|     |-3-|
   a Q  E  a E. S E H                         H            Q  E    +Q  +E
e|-----------------------------------------||--------------------------------|
B|-----------------------------------------||--------------------------------|
G|-----------------------------------------||--------------------------------|
D|-----------------------------------------||------------------8pb9r(8)-(8)\-|
A|-10s8s10-10s8--6-------------------------||------------------7pb8r(7)-(7)\-|
E|-----------------8-6---------------------||--------------------------------|
 |
 | Gtr II
 |                         |3-|     |3|        |3|     |3|
 |    H              E  a  E  S  a  E S  e     S E +E  Q E +H
e|-----------------------------------------||--------------------------------|
B|---------------------------11------------||------------8-(8)---------------|
G|---------------------10s12----12s10-8----||------------8-(8)---------------|
D|--------------------------------------10-||-10-8-(8)---8-(8)---------------|
A|-----------------------------------------||------------7-(7)---------------|
E|-----------------------------------------||--------------------------------|


                                          Bbsus2     C7+9
               TP    TP    TP
   H     E  a  S.    T  a  S.   T  E       W
e|---------------------------------------|---------------------|
B|-----------6s=8S===11--6s=8S==11-------|---------------------|
G|---------------------------------------|---------------------|
D|---------------------------------------|---------------------|
A|---------------------------------------|---------------------|
E|---------------------------------------|---------------------|
 |
 |              |3-|        |3|     |3-|    |3|     |3|
 | +H     E  a  E  S     a  E S     E  S    S E +E  Q E +H
e|---------------------------------------|---------------------|
B|-(8)------------11---------------------|------------8-(8)----|
G|-(8)------10s12-------12s10-8----------|------------8-(8)----|
D|-(8)-----------------------------10----|-10-8-(8)---8-(8)----|
A|-(7)--------------------------------10-|------------7-(7)----|
E|---------------------------------------|---------------------|


                                     Bbsus2     C7+9
                                                   |-3-|       |---3---|
   H     E     E         Q            H            Q   E      +E   +E  E
e|----------------------------------|------------------20b24==(20)-(20)---|
B|--------------x/------------------|-------------------------------------|
G|--------------x/------------------|-------------------------------------|
D|--------------x/------------------|-------------------------------------|
A|----------------------------------|-------------------------------------|
E|----------------------------------|-------------------------------------|
 |
 |              |-3-|     |3|  |3-|    |3|     |3|
 | +H     E  a  E   S  a  E S  E  S    S E +E  Q E +H
e|----------------------------------|-------------------------------------|
B|-(8)-------------11---------------|------------8-(8)--------------------|
G|-(8)------10s12-----12s10-8-------|------------8-(8)--------------------|
D|-(8)------------------------10----|-10-8-(8)---8-(8)--------------------|
A|-(7)---------------------------10-|------------7-(7)--------------------|
E|----------------------------------|-------------------------------------|


                                       Bbsus2     C7+9
               |3-|     |---3---|                        |-3-|
   H     E     E  S     Q       E       H            Q   S S S e
e|------------------------------------|---------------------------|
B|------------------------------------|-------------------------9-|
G|------------------------------------|-------------------8---8---|
D|------------------------------------|---------------------7-----|
A|-----------------6------------------|---------------------------|
E|-------------/5--------6\-----------|---------------------------|
 |
 |              |3-|     |3-|  |-3--|    |3|     |3|
 | +H     E  a  E  S  a  E  S  E    S    S E +E  Q E +H
e|------------------------------------|---------------------------|
B|-(8)------------11------------------|------------8-(8)----------|
G|-(8)------10s12----12s10--8---------|------------8-(8)----------|
D|-(8)------------------------10------|-10-8-(8)---8-(8)----------|
A|-(7)-----------------------------10-|------------7-(7)----------|
E|------------------------------------|---------------------------|


                                    Bbsus2     C7+9
  Gtr II
               |3-|     |3|  |3-|    |3|     |3|
  +H     E  a  E  S  a  E S  E  S    S E +E  Q E +H
e|---------------------------------|---------------------|
B|-(8)------------11---------------|------------8-(8)----|
G|-(8)------10s12----12s10-8-------|------------8-(8)----|
D|-(8)-----------------------10----|-10-8-(8)---8-(8)----|
A|-(7)--------------------------10-|------------7-(7)----|
E|---------------------------------|---------------------|


               |3-|     |3|  |3-|
  +H     E  a  E  S  a  E S  E  S
e|----------------------------------|
B|-(8)------------11----------------|
G|-(8)------10s12----12s10-8--------|
D|-(8)-----------------------10-----|
A|-(7)--------------------------10--|
E|----------------------------------|


  Bbsus2           C7+9
  Gtr V
        |3-|                               |----3----|
   E    E  S S E     S +S    +S  S S   +E  S    +S  +S
e|----------3--------------------------------------------|
B|-------------------------------------------------------|
G|--------------3b5---3-(3)b5-(3)---3b5-(3)-3b5==(3)r(3)-|
D|-------------------------------------------------------|
A|-------------------------------------------------------|
E|-------------------------------------------------------|
 |
 | Gtr II
 |  |3|       |--3--|
 |  S E +E    Q     E   +H
e|-------------------------------------------------------|
B|------------------8---(8)------------------------------|
G|------------------8---(8)------------------------------|
D|-10-8-(8)---------8---(8)------------------------------|
A|------------------7---(7)------------------------------|
E|-------------------------------------------------------|


  +E.    +S  +H.
e|--------------------------------------||
B|-------------------------------------o||
G|-(3)b5==(3)-(3)r----------------------||
D|--------------------------------------||
A|-------------------------------------o||
E|--------------------------------------||
 |
 |                   |---3---|   |-3-|
 | +H               +E   E   E   E E E
e|--------------------------------------||
B|-(8)--------------(8)----------------o||
G|-(8)--------------(8)-----------------||
D|-(8)--------------(8)------------8----||
A|-(7)--------------(7)-(8)-(9)-10-----o||
E|--------------------------------------||


  2.
  C7+9                                             Bb
  Gtr I
                                                   <
                                                   |3-|   |3-|
   W                                H              Q +E  +E  Q
e|-----------------------------|----------------------------------||
B|-----------------------------|----------------------------------||
G|-----------------------------|----------------------------------||
D|-----------------------------|----------------------------------||
A|-----------------------------|----------------------------------||
E|-----------------------------|--------------------6-(6)-(6)-----||
 |
 | Gtr V
 |  |--3---|      |--3---|                  |--3--|        |-3--|
 |  E.  S  E  Q   E.  S  E  Q     a  Q   a  E. S  E Q      Q    E
e|-----------11----------------|----------------------------------||
B|-13--11-13-----13--11--------|----------------------------------||
G|----------------------12-10--|-12s10--12s10--8------------------||
D|-----------------------------|-----------------10-8-----------8-||
A|-----------------------------|----------------------------------||
E|-----------------------------|----------------------------------||
 |
 | Gtrs III, IV
 |  |--3---|      |--3---|                  |--3--|        |-3--|
 |  E.  S  E  Q   E.  S  E  Q     a  Q   a  E. S  E Q      Q    E
e|-----------------------------|----------------------------------||
B|-----------------------------|----------------------------------||
G|------------8----------------|----------------------------------||
D|-10---8-10-----10---8--------|----------------------------------||
A|----------------------10--8--|-10s=8--10s=8--6------------------||
E|-----------------------------|------------------8-6-----------7-||


[Solo]

  C7+9
   |-3--| |----3----| |----3----|  |---3---|
   Q    E E   +E  S S E   +E  S S  E   +E  E
e|---------------------------------(3)--------|
B|-------1---------1-1---------1-1--1-------4-|
G|--3b5====3b5-(3)-----3b5-(3)------3b5-(3)---|
D|--------------------------------------------|
A|--------------------------------------------|
E|--------------------------------------------|
 |
 |  Q      Q           H
e|--------------------------------------------|
B|--------------------------------------------|
G|--------------------------------------------|
D|-10\----------------------------------------|
A|--------------------------------------------|
E|--------------------------------------------|
 |
 |  Q      Q           H
e|--------------------------------------------|
B|--------------------------------------------|
G|--------------------------------------------|
D|--------------------------------------------|
A|--------------------------------------------|
E|--8\----------------------------------------|


  |-3--|              |-3-|   |3| |--3--|
  E E  E    E    a  E S S S a S E S S E E
e|-----------------------------------------|
B|-4-1-------------------------------------|
G|-----[3]b5-3b5r(3)s5-5p3p0-3s5s3s5s3s5s2-|
D|-----------------------------------------|
A|-----------------------------------------|
E|-----------------------------------------|
 |
 | W
e|-----------------------------------------|
B|-----------------------------------------|
G|-----------------------------------------|
D|-----------------------------------------|
A|-----------------------------------------|
E|-----------------------------------------|
 |
 | W
e|-----------------------------------------|
B|-----------------------------------------|
G|-----------------------------------------|
D|-----------------------------------------|
A|-----------------------------------------|
E|-----------------------------------------|


                 ~~~~~
  |----3----|                   |--3---| |--3--|
  E   S a S E   +E    a S T T a E. S S S S S e E
e|--------------------------------------------------|
B|-----4-4p2----------------------------------4-----|
G|-3b5-------3b5r(3)b5-3s5p3p0-3s5--3h5s3s1p0---3b5r|
D|--------------------------------------------------|
A|--------------------------------------------------|
E|--------------------------------------------------|


   |------6-------|               |3|         |--3--|
  +S    +S  S S S S   +S  S a S s S E T T T T S S E E
e|-----------------------------------------------------|
B|-----------1p0---------------------------------------|
G|-(3)b5r(3)-----2-3b5r(3)-0-------------------------1-|
D|---------------------------5s4p0-5s3-1h3p1---------1-|
A|-------------------------------------------3-3p1h3---|
E|-----------------------------------------------------|


  F7
                    ~~~~~~~~
    |-3--|   |----3-----|      |-------9--------|
  a S S +Q  +S     +S  +Q   a  S S S S e t. T.T.T.E e
e|-----------------------------------------------------|
B|-----------------------------------------------------|
G|-----------------------------------------------------|
D|-3s5s3-(3)-(3)b5==(3)-(3)r(3)p1---1h3p1-1------------|
A|--------------------------------3----------2p0h1h3-1-|
E|-----------------------------------------------------|


  |3| |3| |3| |-3-| |------9-------|  |3| |3|
  E S E S e S S S S S. S. S S S S. S. e S E S
e|----------------------------------------------|
B|----------------------------------------------|
G|----------------------------------------------|
D|---1-3-1-3-4s3p1---1-----------------1--------|
A|-3---------------3----3--1h3p1----3----1-3-1--|
E|-------------------------------3--------------|


  C7+9
    |3|   |3| |3|      |-3--|
  E E S a E S E S E E  e E  E
e|------------------------8----|
B|--------------------------11-|
G|-----------3-3---3-5s11------|
D|-------3s5-----5-------------|
A|-3-3-3-----------------------|
E|-----------------------------|


  |----3-----|    |----------9-----------|   |--3---|   |-3--|
  S  S      +Q   +E.      +S   +S  S  S. S.  S S  a S E E e  e
e|-8---------------------------------------------------------------|
B|-----------------------------------------------------------------|
G|---10b12==(10)r(10)b12==(10)r(10)p8-----8----------------8-10b12-|
D|------------------------------------10-----10p8------------------|
A|------------------------------------------------10s8p6-----------|
E|-----------------------------------------------------------------|


  G7                           F7
   |---3----| |--3---|         |------3------|   |-3-| |----3----|   |-3--|
   e e      E e  a E e Q  Q    E    +E      +e   E e e S    +S  +Q  +E  E E
e|----------------------------|----------------------------------------------|
B|----------------------------|----------------------------------------------|
G|----8b8.5-------------------|----------------------------------------------|
D|-10-------10-8--------------|----------------------------------------------|
A|---------------10s8-6-8-----|-8b10r(8)b10==(8)r---8-6-8b10r(8)-(8)-(8)-6---|
E|----------------------------|--------------------------------------------8-|


  C7               F7
    |3|  |---3---|  |-----3-----|  |-3--|
  a Q E  E    E  E  e     e     e  E E  e
e|-------------8---------------------------|
B|-------11b13---11------------------------|
G|------------------10b12-10b12-10-10-8-10-|
D|-----------------------------------------|
A|-----------------------------------------|
E|-6h8-0-----------------------------------|
 |
 | Gtr II
 |   W
e|-----------------------------------------|
B|-----------------------------------------|
G|-----------------------------------------|
D|-----------------------------------------|
A|-----------------------------------------|
E|-----------------------------------------|


  C7                   G7
  |--3---|    |3|  |3|        |3-|     |3|
  E      Q a  E S  E S  e  a  E  S  a  E S  e

e|-------------------------------------------------||
B|-------------------------------11----------------||
G|-8b8.5-------------------10s12----12s10-8--------||
D|-------10-8h10-8--------------------------10-----||
A|-----------------10-8-10-------------------------||
E|-------------------------------------------------||
 |
 |                             |3-|     |3|  |3-|
 | H                     E  a  E  S  a  E S  E  S
e|-------------------------------------------------||
B|-------------------------------11----------------||
G|-------------------------10s12----12s10-8--------||
D|------------------------------------------10-----||
A|---------------------------------------------10--||
E|-------------------------------------------------||


[Verse]

  Bbsus2                  C7+9
     >
   |3|
   S E +E  +H.            +H     H

e|-----------------------|---------------------------------|
B|-----------------------|---------------------------------|
G|-----------------------|---------------------------------|
D|-10p8-(8)-(8)----------|-(8)-----------------------------|
A|-----------------------|---------------------------------|
E|-----------------------|---------------------------------|
 |
 |  |3|      |3-|                       |3-|     |3|  |3-|
 |  S E +E   Q  E +H       +H     E  a  E  S  a  E S  E  S
e|-----------------------|---------------------------------|
B|--------------8-(8)----|-(8)------------11---------------|
G|--------------8-(8)----|-(8)------10s12----12s10-8-------|
D|-10-8-(8)-----8-(8)----|-(8)-----------------------10----|
A|--------------7-(7)----|-(7)--------------------------10-|
E|-----------------------|---------------------------------|


  Bbsus2     C7+9                N.C.
   W                     H     E E  Q

e|---------------------|----------x/----|
B|---------------------|----------x/----|
G|---------------------|----------x/----|
D|---------------------|----------------|
A|---------------------|----------------|
E|---------------------|--------0-------|
 |
 |  |3|     |3|
 |  S E +E  Q E +H       +H     H
e|---------------------|----------------|
B|------------8-(8)----|-(8)------------|
G|------------8-(8)----|-(8)------------|
D|-10-8-(8)---8-(8)----|-(8)------------|
A|------------7-(7)----|-(7)------------|
E|---------------------|----------------|


         (G5)    C7+9   C
  Gtr II
       |3| |3|
  H    Q E Q E   H    E   Q.
e|--------------|--------!20----|
B|--------------|-8------!20----|
G|--------------|-8------!21----|
D|--------5-5---|-8------!22----|
A|--------------|-7-------------|
E|--------3-3---|---------------|


  N.C.(Bb)    C7+9               N.C.
  Gtr V                            Gtr I
  E   S   S Q  H          H      E S S S S E

e|---!15----------------|---------------------||
B|--------15------------|---------------------||
G|---!14----------------|---------------------||
D|----------------------|-------------------1-||
A|----------------------|-----------------1---||
E|----------------------|-----------1-2-3-----||
 |
 | Gtr II
 |                  |3|
 | E   E     Q  Q   E Q   +Q   Q  H
e|----------------------|---------------------||
B|-----------------10---|---------------------||
G|-----------------10p8-|-(8)-----------------||
D|-----x/---------------|---------------------||
A|-----x/---------------|---------------------||
E|-----x/---------------|---------------------||


[Verse Double Time Feel]

  C            F             C            F
  Gtr I
  S E. S S S S E S S S S E   S E. S S S S E S S S S S S
e|--------------------------|----------------------------|
B|--------------------------|----------------------------|
G|--------------------------|----------------------------|
D|------------------------1-|------------------------1---|
A|-1s3--3-1-------------1---|-1s3--3-1-------------1---1-|
E|----------3-2-1-1-2-3-----|----------3-2-1-1-2-3-------|


  C            F               C            F
                                 ~~
  S E. S S S S E S S S S S S   S E. S S S S E S S S S E
e|----------------------------|--------------------------|
B|----------------------------|--------------------------|
G|----------------------------|--------------------------|
D|------------------------1-1-|------------------------1-|
A|-1s3--3-1-------------1-----|-1s3--3-1-------------1---|
E|----------3-2-1-1-2-3-------|----------3-2-1-1-2-3-----|


  C            F               C            F
  S E. S S S S E S S S S S S   S E. S S S S E S S S S S S
e|----------------------------|----------------------------|
B|----------------------------|----------------------------|
G|----------------------------|----------------------------|
D|------------------------1---|------------------------1---|
A|-1s3--3-1-------------1---1-|-1s3--3-1-------------1---1-|
E|----------3-2-1-1-2-3-------|----------3-2-1-1-2-3-------|


  C            F             C            F
  S E. S S S S E S S S S E   S E. S S S S E S S S S E
e|--------------------------|--------------------------|
B|--------------------------|--------------------------|
G|--------------------------|--------------------------|
D|------------------------1-|------------------------1-|
A|-1s3--3-1-------------1---|-1s3--3-1-------------1---|
E|----------3-2-1-1-2-3-----|----------3-2-1-1-2-3-----|


  C            F               C            F
  S E. S S S S E S S S S S S   S E. S S S S E S S S S E
e|----------------------------|--------------------------|
B|----------------------------|--------------------------|
G|----------------------------|--------------------------|
D|------------------------1---|------------------------1-|
A|-1s3--3-1-------------1---1-|-1s3--3-1-------------1---|
E|----------3-2-1-1-2-3-------|----------3-2-1-1-2-3-----|


  N.C.
  Gtr I
  |3| |3-| |3-| |---3---|
  Q E Q  E E  Q E  E  S S

e|-------------------------|
B|-------------------------|
G|-8-8-8----8-10-8-------8-|
D|-------10--------10------|
A|--------------------10---|
E|-------------------------|
 |
 | Gtr V
 | |3| |3-| |3-| |--3--|
 | Q E Q  E E  Q E  E  E
e|-------------------------|
B|-------------------------|
G|-------------------------|
D|-1-1-1----1--3-1---------|
A|--------3---------3--3---|
E|-------------------------|


   |-----3------|  |-3--|                  |-3--|
   E     +S  S  E  E E  E  E  S      +S   +Q   +E

e|----------------------------------------------------||
B|----------------------------------------------------||
G|-10b12r(10)p8----10-8-------10b12==(10)-(10)-(10)r\-||
D|--------------10------10-10-------------------------||
A|----------------------------------------------------||
E|----------------------------------------------------||
 |
 |                                     ~~~~~~~~
 |  |-----3------|  |-3--|                  |-3--|
 |  E     +S  S  E  E E  E  E  S       S   +Q   +E
e|----------------------------------------------------||
B|----------------------------------------------------||
G|----------------------------------------------------||
D|--3b5r==(3)p1-----3-1--------3s======5---(5)--(5)\--||
A|---------------3-------3--3-------------------------||
E|----------------------------------------------------||


[Chorus]

  Cm7Dm7 Eb6Dm7          CmDm7Eb6   Dm7CmDm7CmDm7
  Gtr II
          |3-|                            |-3--|
  Q   Q   Q  E Q    Q  E S  S  S  S  S S  E E  E
e|-----------------|------------------------------|
B|-8--10--11-10----|------8-10-11-11-10-8-10-8-10-|
G|-8--10--12-10----|------8-10-12-12-10-8-10-8-10-|
D|-8--10--10-10----|------8-10-10-10-10-8-10-8-10-|
A|-----------------|------------------------------|
E|-8--10--11-10----|------8-10-11-11-10-8-10-8-10-|


    C7
    |3-|  |--3---|        |--3--|
  a Q  E  E  E a E +Q   a E  E  E   W

e|----------------8-(8)------------|-------------------------------------|
B|---8------------8-(8)------------|-------------------------------------|
G|-8h9----10-10-8h9-(9)--8h9-------|-------------------------------------|
D|---8----10-10---8-(8)------10----|-------------------------------------|
A|-----10-----------------------10-|-------------------------------------|
E|---8-----------------------------|-------------------------------------|
 |
 |                                   Gtrs III, IV
 |                                                                TP TP
 |                                       |3-|  |3-|  |3-|  |3-| |3|
 |   W                               E   E  S  E  S  E  S  E  S E S  Q
e|---------------------------------|-------------------------------------|
B|---------------------------------|-------------------------------------|
G|---------------------------------|----/8-----------9--------7---5--5---|
D|---------------------------------|--------8----------------------------|
A|---------------------------------|-----------8--9-----9--8----6--------|
E|---------------------------------|-------------------------------------|
 |
 |                                   Gtr V
 |                                       |3-|  |3-|  |3-|  |3-| |3|
 |   W                               E   E  S  E  S  E  S  E  S E S +Q
e|---------------------------------|---/11----------12-------10---8-(8)--|
B|---------------------------------|-------11----------------------------|
G|---------------------------------|----------10-11----11-10----8--------|
D|---------------------------------|-------------------------------------|
A|---------------------------------|-------------------------------------|
E|---------------------------------|-------------------------------------|


  G           F    N.C.
  Gtr I
   W           Q   Q  H
e|-----------|--------------|
B|-12--------|-10\----------|
G|-12--------|-10\----------|
D|-12--------|-10\----------|
A|-10--------|--8\----------|
E|-----------|--------------|


                      ~~~~~
   |-------3-------|  |---3----| |---------9----------|     |--3--|
   S      +S   S S E  Q     S  S S.  S.  S. S.  S  S  S  a  S  S  S  S  S
e|--------------8-8-8-------11-11-8--11--10--8--13-12-11-------------11-11-|
B|--------------------11b13------------------------------11s13-13-13-------|
G|-10b12==(10)r------------------------------------------------------------|
D|-------------------------------------------------------------------------|
A|-------------------------------------------------------------------------|
E|-------------------------------------------------------------------------|


          Db1C13
  2/4
       TP
           |3-|
    a  Q   Q  E
e|-----------10-|
B|-11s13--11-10-|
G|--------10--9-|
D|---------9--8-|
A|--------------|
E|---------9--8-|


 Free Time
 4/4
             |-3--|             |---3---|
   +Q    +E  S  S S  E     S S  E  S E  S
e|-(10)--(10)-8----------------------------:
B|-(10)--(10)---11-8-------11-8-11----8----:
G|--(9)---(9)--------10b12---------10------:
D|--(8)---(8)---------------------------10-:
A|-----------------------------------------:
E|--(8)---(8)------------------------------:


                                                                  ~~~~
   |3-|  |3|
   E  S  E S     +E  +S      +S  +S      +S  +S      +S   a      +Q      W
e|----------------------------------------------------------------------:------*|
B|-10-------------------------------------------------------------------:------*|
G|----10----------------------------------------------------------------:------*|
D|-------10-8b10==(8)r(8)b10==(8)r(8)b10==(8)r(8)b10==(8)r(8)b10==(8)r--:------*|
A|----------------------------------------------------------------------:------*|
E|----------------------------------------------------------------------:------*|



************************************

| b    Bend
| s    Slap
| (n)  Ghost note
| /    Slide up
| p    Pull-off
| h    Hammer-on
| pb   Pre-bend
| \    Slide down
| r    Release
| *    Natural harmonic

************************************

            
            
Suggest correction
Creating personal tab
Creating personal tab
You can edit any tab online and save it as your Personal.

You can edit, replace or remove any tab part or add personal notes – all changes will be seen only by you.

Personal tabs can be accessed anytime from any device, even offline.
Learn more »
comments
print report bad tab
2 comments total.
+1 reply
simmons100 31 Jul 11, 2008 02:09 PM

alright

0 reply
mjlovell451 10 Dec 19, 2015 08:34 AM

I robbed his rings
An' pocket watch
An' everything else I found
I had that sucker hypnotized
He couldn't even make a sound

guest
Wanna post a correction for this tab? Suggest correction