Oops, an error
Loading. Please wait.

Lets Make The Water Turn Black bass

version 1
version 1

Whole song

Interactive

1,095 views 1 this week
no commentswrite comment
1 2 3 4 5
2 more votes to show rating
add to favorites
×
Save as Personal and add changes to this tab that will be seen only by you. Learn more ›
×
You can save this tab as Personal to edit and correct it or add notes. All changes will be seen only by you. Learn more »
launch autoscroll
font size
0
reset
guitar tuner
edit
Autoscroll
slow
fast
+/-
esc
set tempo
stop
Author
Difficulty
Artist: Frank Zappa

Album: We're Only In It For The Money

Song: Let's Make the Water Turn Black


Intro

G||------------------------------------------------|
D||--10.10.10----10.10.10----10.10.10----10.10.10--|
A||------------------------------------------------|
E||------------------------------------------------|

verse 1

G||-----------------------------------|
D||--10--10/9---7--7-7----------------|
A||-----------10--------5-57-78-8.10--|
E||-----------------------------------|

G||------------------------------------|
D||--10--10/9---7---78-8----6--65------|
A||-----------10--------6--6-------10--|
E||------------------------------------|

Verse 2

G||-----------------------------------|
D||--10--10/9---7--7-7----------------|
A||-----------10--------5-57-78-8.10--|
E||-----------------------------------|

G||------------------------------|
D||--10--10/9---7----78--87--7---|
A||-----------10--------------5--|
E||------------------------------|

Inter

G||--------------------------4--47-7--|
D||---5---3--35--57--75--57--7--------|
A||--5---5----------------------------|
E||-----------------------------------|

G||---------------------------------------|
D||--5--53--31--1.0--0----------555555-5--|
A||-------------------3-3-3-6-5-----------|
E||---------------------------------------|

verse 3

G||-----------------------------------|
D||--10--10/9---7--7-7----------------|
A||-----------10--------5-57-78-8.10--|
E||-----------------------------------|

G||---------------------------------|
D||--10--10/9---7--------------7----|
A||-----------10----8--8.10--10-----|
E||---------------------------------|

Inter 2

G||------------------------------------------------------------------|
D||--7--------7--77--79--------7--77--79----------------2--22--2--0--|
A||---7--77--7---------7--77--7---------7--77-5-3--32--2-------------|
E||------------------------------------------------------------------|

G||--------------------------4--47-7--|
D||---5---3--35--57--75--57--7--------|
A||--5---5----------------------------|
E||-----------------------------------|

G||---------------------------------------|
D||--5--53--31--1.0--0----------555555-5--|
A||-------------------3-3-3-6-5-----------|
E||---------------------------------------|

Verse 4

G||--------------------------------------|
D||--10--10/9---7--7-7-------------------|
A||-----------10--------5-57-78-8.10-----|
E||----------------------------------10--|

G||---------------------------------|----------------|
D||--10--10/9---7--------------7----|-------------7--|
A||-----------10----8--8.10--10-----|--8--8.10--10---|
E||---------------------------------|----------------|

Tab by: PEdro Zappa

            
            
Suggest correction
Creating personal tab
Creating personal tab
You can edit any tab online and save it as your Personal.

You can edit, replace or remove any tab part or add personal notes – all changes will be seen only by you.

Personal tabs can be accessed anytime from any device, even offline.
Learn more »
Give kudos to tab author, rate the tab!
1 2 3 4 5
comments
print report bad tab
guest
You may want to rate the tab now too:
select rating
Wanna post a correction for this tab? Suggest correction