Oops, an error
Loading. Please wait.

Montana bass

version 1
version 1

Whole song

Interactive

3,974 views 1 this week
no commentswrite comment
1 2 3 4 5
x 3
add to favorites
×
Save as Personal and add changes to this tab that will be seen only by you. Learn more ›
×
You can save this tab as Personal to edit and correct it or add notes. All changes will be seen only by you. Learn more »
launch autoscroll
font size
0
reset
guitar tuner
backing track
0:00
0:00
edit
Autoscroll
slow
fast
+/-
esc
set tempo
stop
Frank Zappa
Montana
bass tab

  0.00         intro             t:105            4:4
|----------------|----------------|----------------|----------------|
|----------------|----------------|----------------|----7..........\|
|-------^^-------|----0---0----12\|0---------------|----------------|
|5--.5-=5-5=5=5-.|5---------------|---.5-=5-5=5=5-.|5---------------|

                                  |----------------|----------------|
                                  |----------------|----------------|
                                  |----------------|----------------|
                                  |----------------|----------------|
  0.16         verse 1a
|------^^^-4-----|------^^^-4-----|------^^^-4-----|------^^^-4-----|
|^^^---6-----4-6-|^^^---6-----4-6-|------6-----4-6-|^^^---6-----4-6-|
|2--/6-----------|2--/6-----------|2-4/6-----------|2--/6-----------|
|----------------|----------------|----------------|----------------|

|----------------|----------------|----------------|----------------|
|----------------|----------------|----------------|--2-------------|
|2-2-=-------9-\\|4-4-=-------10\\|------------2-2-|------2---^^----|
|----------------|----------------|5-=-------------|0--------3210-7-|
                                                             -3-
|----------------|----------------|---------------/|7---------------|
|------7-------7-|10----7---10----|----------------|--7---5---------|
|----7-------7---|----7-----------|----------------|----------------|
|8---------8-----|--8---------8\--|5-6-7-8\--5-----|----------------|

  0.49         refrain 1
|----------------|----------------|----------------|----------------|
|------3---6-----|----------------|------6---9-----|5---------------|
|3-4-6-----------|7---------------|6-7-9-----------|--5---5--5--5---|
|----------------|--7---7---------|----------------|----------5--76-|

  1.00         verse 1b
|------^^^-4-----|------^^^-4-----|------^^^-4-----|------^^^-4-----|
|------6-----4-6-|^^^---6-----4-6-|-^----6-----4-6-|^^^---6-----4-6-|
|^^^-6-----------|2--/6-----------|2-4/6-----------|2--/6-----------|
|7---------------|----------------|----------------|----------------|

|----------------|----------------|----------------|----------------|
|----------------|----------------|----------------|--5---7---------|
|2-2-=-------^^^-|----------------|------------5--4|7------------02-|
|------------3---|5-5-=-------7-\\|5-=-----------5-|----------3-----|

|----------5-----|----------------|----------------|----------------|
|------7-----5-7-|------7---10----|14--------------|------8------^--|
|3--/7--------/--|----7-------1012|------12--------|8-8-------8-76--|
|----------------|8--------/----/-|--12------------|--------------8-|

  1.33         chorus 1
|----10--10--9---|------9-10--9---|----------------|----------------|
|9-10--10--9---10|----10----10--10|------9-=-9-=-9-|------9-97------|
|----------------|----------------|---------------9|----9-----9-87--|
|----------------|7---------------|7--77-----------|7-77----------98|

|----------------|----------------|----------------|----------------|
|----------------|----------------|------9---9---9-|----------------|
|-^--7---8---7---|------7-8---7---|---------------9|----------7-----|
|7-8---8---8---8-|7---8-----8---8-|7--77---7---7---|7--.7-7-98--987\|

  1.55         solo
|----------------|-^--------------|-^-^------------|-^-------^------|
|4-------4-------|2444----4-------|2424----4-------|24------4o4-----|
|---4---4--------|-------4--------|-------4--------|---4--4---------|
|----2-=---2-2-=-|----2-----2-2-=-|----2-----2-2---|----2-------2---|

|-^--------------|-^--------------|-^--------------|-^--------------|
|24--------4-----|24--------4-----|24--------------|24--------4--^--|
|-------^-.------|-------^-.------|-------^--------|---------4--234-|
|---o2-2o2---2-=-|---o2-2o2---2-=-|---o2-2o2-2-2-=-|---o2-22--------|

|-^-------^------|-^--------------|-^--------------|-^--------------|
|24..----244-----|244-------------|24----------4---|24-^--------4--^|
|-------4--------|----------2-2---|----------4---44|--20------4---40|
|---o2-------2-=-|----2-2-=-----2-|---o2-22--------|----2-22--------|

|-^--------------|-^--------------|-^--------------|-^--------------|
|2444------4-4-=-|234.------4-4---|24--------4-4-=-|24-^------^--^--|
|----------------|--------------4-|---------4------|--20-----o22242-|
|----2-2--=------|----2-2-=-------|---o2-22--------|----2-22--------|

  2.40
|-^--------------|-^--------------|-^--------^-----|-^--------------|
|244-------4-=---|244------4-4--=-|24:.------4-4-=-|244-------234---|
|----------------|----------------|----------------|---o------------|
|---02-2--=----2-|---o2-2-=-------|----2-2--=------|----2o2--=------|

|----------^-----|-^--------------|----------------|^-------------2-|
|2-4-------4-4-=-|2444----------2-|4-------4-------|4-44------4-4---|
|---o------------|----------4-4--4|-o-----4--------|----------------|
|----2.2-=-------|----2-22--------|--2-2-----2-2---|-----22---------|

|----------------|-^--------------|-^--------------|----------------|
|4------o4-------|24--------4-----|244-------4-----|4-4-------------|
|----------------|----------------|----------------|---4---------0--|
|---o2-----2-2-=-|---o2-22----2-=-|---o2-22----2---|----2-2---202-2-|

|-^^-------------|-^--------------|-^--------------|-^--------------|
|4-4-------------|24--------------|24:.------------|24:.------------|
|----------------|----------------|----------------|----------------|
|----2-2-=-2-2-=-|---o2-22-=2o2-=-|---o2-2-=-2-2-=-|---o2-2-=-222\--|

  3.23         bridge                               -3- -3-
|----------------|----------------|----------------|----------------|
|4-------4-------|4-------4-------|4-------------4-|2--0-------.2-3-|
|-------4-------4|----------------|-4=-----0--2----|----42-2--------|
|----2-=---2-=-2-|---o2-----2-=-2-|----2-2---------|------4---------|

|----------------|----------------|----------------|----------------|
|4-------4-------|4-------4-------|4=--------------|--------4-----4/|
|----------------|----------------|--------0--2--4-|2--4--6----2----|
|---o2-----2---2-|---o2-2---2-=-2-|---o2-----------|----------------|

|----------------|----------------|----------------|----------------|
|5---------------|5---------------|----------------|----------------|
|--5-----------5-|---7--5---------|--9-=-6-=-6-=-6-|--7-------------|
|------5---3-----|--------7--5--3-|7---------------|7-----0o0-0o0o0-|

  3.57
|5--3------------|----------------|------------7-=-|575----5--------|
|------5----3----|-------------oo=|--------7--=----|----o7--7o5-o4--|
|--------5-----3-|--------2-0-----|5-=7-=9---------|---------------o|
|----------------|0-----2---------|----------------|----------------|

  4.08         verse 2a
|------^^^-4-----|------^^^-4-----|------^^^-4-----|------^^^-4-----|
|^^^---6-----4-6-|^^^---6-----4-6-|^^^---6-----4-6-|^^^---6-----4-6-|
|2--/6-----------|2--/6-----------|2--/6-----------|2--/6-----------|
|----------------|----------------|----------------|----------------|

|----------------|----------------|----------------|----------------|
|------------2:::|5-4-=------^^-^^|----------------|--7-=-----------|
|2-2-=-----------|----------56765o|------------9--7|9-----7---5-----|
|----------------|----------------|6-=-----------9-|--------------7-|

|----------5-----|----------5-----|----------------|----------------|
|------7-----5-7-|------7-----5-7-|----------------|12--------------|
|----7-----------|3---7-----------|----------------|--12--10-----\\-|
|8---------------|----------------|5-6-7-8\--5-----|----------------|

  4.41         refrain 2
|----------------|----------------|----------------|----------------|
|------3---6-----|----------------|------6---9-----|----------------|
|3-4-6-----------|7---------------|6-7-9-----------|10-------.12\-o-|
|----------------|--7---7---------|----------------|--10--10--------|

  4.52         verse 1b
|------^^^-4-----|------^^^-4-----|------^^^-4-----|------^^^-4-----|
|^^^---6-----4-6-|^^^---6-----4-6-|-^----6-----4-6-|^^^---6-----4-6-|
|2---6-----------|2--/6-----------|2-4/6-----------|2--/6-----------|
|----------------|----------------|----------------|----------------|

|----------------|----------------|----------------|----------------|
|------------^^^-|^---------------|----------------|^---------------|
|2-2-=-------7---|9-9-=-----------|------------7-7-|9-9-------5-----|
|----------------|------------10\\|5-=-------------|------9\------7-|

|----------------|----5-----5-----|----------------|----------------|
|---/10----105-7-|-----/7-----5-7-|------7---------|------8---------|
|------12----\---|3---------------|7-7-------------|8-8------.6-----|
|8---------------|----------------|----------------|------------876\|

  5.26         chorus 2
|----------------|----------------|--------------4-|----4-4=--4-=-4-|
|------4-=-4-4---|--4.4-=-4-=-4---|---------------4|--4--4-------4-4|
|--------------4-|----------------|2-3-4-2-=-2-=---|2--2------------|
|1-2-=----------o|2-------------24|----------------|----------------|

|----------------|----------------|----------------|----------------|
|------4-=-4-=-4=|---.4-=-4-=-4---|------9-=-9-=-9-|----9-7-7-9-7-9-|
|----------------|----------------|---------------9|--9--9-9-----9-9|
|2-.-.-----------|2-------------2/|7-7-7-----------|7---------------|

|----------------|----------------|----4o4-=-4242--|------4.4--242--|
|------4-=-4-=-4-|----.-4-=-4-=---|--------------4-|--------------4-|
|----------------|----------------|2-2-------------|2--.2-----------|
|7\\.2-----------|2-.-----------24|----------------|----------------|

|----------------|----------------|----------------|----------------|
|------4-=-4-=-4-|----4-4-=-4-----|------99=-99=-9-|------9=9--797--|
|----4-----------|--4--------4----|---------------9|--------------9-|
|2---------------|2--2--------2-4-|7-7-7-----------|7-7-7-----------|

            
            
Suggest correction
Creating personal tab
Creating personal tab
You can edit any tab online and save it as your Personal.

You can edit, replace or remove any tab part or add personal notes – all changes will be seen only by you.

Personal tabs can be accessed anytime from any device, even offline.
Learn more »
Give kudos to tab author, rate the tab!
1 2 3 4 5
comments
print report bad tab
guest
You may want to rate the tab now too:
select rating
Wanna post a correction for this tab? Suggest correction