Oops, an error
Loading. Please wait.

Sinister Footwear Second Movement bass

416 views 1 this week
no commentswrite comment
1 2 3 4 5
3 more votes to show rating
add to favorites
×
Save as Personal and add changes to this tab that will be seen only by you. Learn more ›
×
You can save this tab as Personal to edit and correct it or add notes. All changes will be seen only by you. Learn more »
launch autoscroll
font size
0
reset
guitar tuner
edit
Autoscroll
slow
fast
+/-
esc
set tempo
stop
     H.              H.              H.              H.            
G||---------------|--5------------|---------------|--5------------|
D||---------------|---------------|---------------|---------------|
A||--4------------|---------------|--4------------|---------------|
E||---------------|---------------|---------------|---------------|
B||---------------|---------------|---------------|---------------|


  H.              H.              H.              H.              H.            
---------------|--5------------|---------------|--5------------|---------------|
---------------|---------------|---------------|---------------|---------------|
--3------------|---------------|--3------------|---------------|--2------------|
---------------|---------------|---------------|---------------|---------------|
---------------|---------------|---------------|---------------|---------------|


  H.              H.              H.              H.              H.            
--4------------|---------------|--4------------|---------------|--3------------|
---------------|---------------|---------------|---------------|---------------|
---------------|--2------------|---------------|--1------------|---------------|
---------------|---------------|---------------|---------------|---------------|
---------------|---------------|---------------|---------------|---------------|


                                           |--3--|                     
  H.              H.              H        E  E  E     Q.     Q    E   
---------------|--3------------|--------------6--4--|--6--------------|
---------------|---------------|--------------------|---------7----5--|
--1------------|---------------|--------------------|-----------------|
---------------|---------------|--6--------L--------|-----------------|
---------------|---------------|--------------------|-----------------|


                   |--3--|                                                    
  Q    H           E  E  E  H           Q    Q    Q       Q.     S S S S S S  
----------------|--6-----6--L--------|-------2----2----|--2------L---2-0-----|
-------8--------|-----9--------------|-----------------|-----------0-----2-0-|
----------------|--------------------|--0--------------|---------------------|
--6-------------|--------------------|-----------------|---------------------|
----------------|--------------------|-----------------|---------------------|


                   |--3--|                                                   
  Q    H           E  E  E  H           Q    Q    Q       E  E  E  E  E  E   
-------2--------|--2--2-----2--------|-----------------|-----3--------------|
----------------|--------0-----------|-------6----6----|--6-----4--6--------|
--0-------------|--------------------|-----------------|--------------6-----|
----------------|--------------------|--4--------------|-----------------4--|
----------------|--------------------|-----------------|--------------------|


  Q    Q.     E     H        S S E     Q    Q    Q       Q.     S S S S S S  
-------4---------|------------------|-----------------|---------------------|
--------------4--|--6--------L------|-------5----5----|--5------0-3-5-3-0---|
--4--------------|-------------4-6--|-----------------|-------------------3-|
-----------------|------------------|--3--------------|---------------------|
-----------------|------------------|-----------------|---------------------|


                   |--3--|                                            
  Q    H           E  E  E  H           H.              H.            
----------------|--------------------|---------------|---------------|
-------5--------|--5--5--0--5--------|--4------------|--L------------|
----------------|--------------------|---------------|---------------|
--3-------------|--------------------|---------------|---------------|
----------------|--------------------|---------------|---------------|


  H        E  E     E  E  E  E  E  E     H.              H.            
-----------------|--------------------|---------------|---------------|
--L--------------|-----------------4--|--3------------|--L------------|
-----------------|-----------2--4-----|---------------|---------------|
--------------4--|--4--5--5-----------|---------------|---------------|
-----------------|--------------------|---------------|---------------|


  H        E  E     E  E  E  E  E  E     H.              H.            
-----------------|--------------------|---------------|---------------|
--L--------------|--------------1--0--|--2------------|--L------------|
-----------------|--------2--4--------|---------------|---------------|
--------------4--|--4--5--------------|---------------|---------------|
-----------------|--------------------|---------------|---------------|


  H        E  E     E  E  E  E  E  E     H.              H.            
-----------------|--------------------|---------------|---------------|
--L-----------2--|--2-----------------|---------------|---------------|
-----------------|-----5--5--4--4-----|---------------|---------------|
-----------------|-----------------2--|--3------------|--L------------|
-----------------|--------------------|---------------|---------------|


  H        E  E     E  E  E  E  E  E     H        E  E     Q    Q    Q     
-----------------|--------------------|-----------------|-----------------|
-----------------|--------------------|-----------------|-----------------|
--------------4--|--2--1-----------1--|--2--------L-----|--2----4----5----|
--L--------------|--------3-----2-----|--------------2--|-----------------|
-----------------|-----------4--------|-----------------|-----------------|


  H.              Q    E  E  E  E     H        E  E     Q    Q    Q     
---------------|-------------------|-----------------|-----------------|
---------------|-------------------|-----------------|-----------------|
--1------------|--L----------------|--2--------L-----|--2----4----5----|
---------------|----------2--0--2--|--------------2--|-----------------|
---------------|-------------------|-----------------|-----------------|


  H.              Q    E  E  E  E     H        E.  S    Q    Q    Q     
---------------|-------------------|-----------------|-----------------|
---------------|-------------------|-----------------|-----------------|
--1------------|--L----------------|--2--------L-----|--2----4----5----|
---------------|----------2--0--2--|---------------2-|-----------------|
---------------|-------------------|-----------------|-----------------|


  H.              Q    Q    E  E     Q.     S S S S S S    Q    Q    Q     
---------------|------------------|---------------------|-----------------|
---------------|------------------|---------4-2-0-------|-----------------|
--1------------|--L---------------|--2------------2---1-|--2----4----5----|
---------------|---------------0--|-----------------3---|-----------------|
---------------|------------------|---------------------|-----------------|


                                      slightly faster t=87                      
  H.              Q    E  E  E  E     W                       W                 
---------------|-------------------|-----------------------|-------------------|
---------------|-------------------|-----------------------|-------------------|
--1------------|--L----------------|-----------------------|-------------------|
---------------|----------2--0--2--|--4--------------------|--L----------------|
---------------|-------------------|-----------------------|-------------------|


  W                   W                   W                   W                 
-------------------|-------------------|-------------------|-------------------|
-------------------|-------------------|-------------------|-------------------|
-------------------|-------------------|-------------------|-------------------|
--1----------------|--L----------------|--4----------------|--L----------------|
-------------------|-------------------|-------------------|-------------------|


  H.           S S E     Q.     S S Q.     E     W                 
-------------------1--|--1--------3-L---------|-------------------|
-----------------3----|--------------------3--|--6----------------|
----------------------|-----------------------|-------------------|
--1------------L------|-----------------------|-------------------|
----------------------|-----------------------|-------------------|


  H        H           H.            Q       H        Q    Q     
--------------------|---------------10----|--L------------------|
--L--------6--------|---------------------|---------------------|
--------------------|--8-------------L----|--L--------6----8----|
--------------------|---------------------|---------------------|
--------------------|---------------------|---------------------|


   W                   E   E  H.              W                 
--------------------|-----13--L------------|-------------------|
--------------------|----------------------|-------------------|
--11----------------|--L-------------------|--8----------------|
--------------------|----------------------|-------------------|
--------------------|----------------------|-------------------|


  Q     H.              S S E  Q    H           S S E  Q    E  E  E  E   
-------10------------|-----------------------|--------------------------|
---------------------|-----------------------|--------------------------|
--L-----L------------|-----------------------|--------------------------|
---------------------|--3-4------------------|--4-3---------3-----4-----|
---------------------|-----------------------|--------------------------|


  W                   S S E  Q    S S E  S S E     S S E  Q    H         
-------------------|----------------------------|-----------------------|
-------------------|----------------------------|-----------------------|
--5----------------|--5-6---------6-5----5-6----|-----------------------|
-------------------|----------------------------|--3-4------------------|
--3----------------|----------------------------|-----------------------|


  S S E  Q    E  E  E  E     W                   S S E  Q    S S E  S S E   
--------------------------|-------------------|----------------------------|
--------------------------|-------------------|----------------------------|
--------------------------|--5----------------|--5-6---------6-5----5-6----|
--4-3---------3-----4-----|-------------------|----------------------------|
--------------------------|--3----------------|----------------------------|


  S S E  Q    H           S S E  Q    E  E  E  E     W                 
-----------------------|--------------------------|-------------------|
-----------------------|--------------------------|-------------------|
-----------------------|--------------------------|--5----------------|
--3-4------------------|--4-3---------3-----4-----|-------------------|
-----------------------|--------------------------|--3----------------|


  S S E  Q    S S E  S S E     S S E  Q    H           S S E  Q    E  E  E  E   
----------------------------|-----------------------|--------------------------|
----------------------------|-----------------------|--------------------------|
--5-6---------6-5----5-6----|-----------------------|--------------------------|
----------------------------|--3-4------------------|--4-3---------3-----4-----|
----------------------------|-----------------------|--------------------------|


  W                   S S E  Q    S S E  S S E     S S E  Q    H         
-------------------|----------------------------|-----------------------|
-------------------|----------------------------|-----------------------|
--5----------------|--5-6---------6-5----5-6----|-----------------------|
-------------------|----------------------------|--3-4------------------|
--3----------------|----------------------------|-----------------------|


  S S E  Q    E  E  E  E     W                   S S E  Q    S S E  S S E   
--------------------------|-------------------|----------------------------|
--------------------------|-------------------|----------------------------|
--------------------------|--5----------------|--5-6---------6-5----5-6----|
--4-3---------3-----4-----|-------------------|----------------------------|
--------------------------|--3----------------|----------------------------|


  S S E  Q    H           S S E  Q    E  E  E  E     W                 
-----------------------|--------------------------|-------------------|
-----------------------|--------------------------|-------------------|
-----------------------|--------------------------|--5----------------|
--3-4------------------|--4-3---------3-----4-----|-------------------|
-----------------------|--------------------------|--3----------------|


  S S E  Q    S S E  S S E     S S E  Q    H           S S E  Q    E  E  E  E   
----------------------------|-----------------------|--------------------------|
----------------------------|-----------------------|--------------------------|
--5-6---------6-5----5-6----|-----------------------|--------------------------|
----------------------------|--3-4------------------|--4-3---------3-----4-----|
----------------------------|-----------------------|--------------------------|


  W                   S S E  Q    S S E  S S E     S S E  Q    H         
-------------------|----------------------------|-----------------------|
-------------------|----------------------------|-----------------------|
--5----------------|--5-6---------6-5----5-6----|-----------------------|
-------------------|----------------------------|--3-4------------------|
--3----------------|----------------------------|-----------------------|


  S S E  Q    E  E  E  E     W                   S S E  Q    S S E  S S E   
--------------------------|-------------------|----------------------------|
--------------------------|-------------------|----------------------------|
--------------------------|--5----------------|--5-6---------6-5----5-6----|
--4-3---------3-----4-----|-------------------|----------------------------|
--------------------------|--3----------------|----------------------------|


  S S E  Q    H           S S E  Q    E  E  E  E     W                 
-----------------------|--------------------------|-------------------|
-----------------------|--------------------------|-------------------|
-----------------------|--------------------------|--5----------------|
--3-4------------------|--4-3---------3-----4-----|-------------------|
-----------------------|--------------------------|--3----------------|


  S S E  Q    S S E  S S E     S S E  Q    H           S S E  Q    E  E  E  E   
----------------------------|-----------------------|--------------------------|
----------------------------|-----------------------|--------------------------|
--5-6---------6-5----5-6----|-----------------------|--------------------------|
----------------------------|--3-4------------------|--4-3---------3-----4-----|
----------------------------|-----------------------|--------------------------|


  W                   S S E  Q    S S E  S S E     S S E  Q    H         
-------------------|----------------------------|-----------------------|
-------------------|----------------------------|-----------------------|
--5----------------|--5-6---------6-5----5-6----|-----------------------|
-------------------|----------------------------|--3-4------------------|
--3----------------|----------------------------|-----------------------|


  S S E  Q    E  E  E  E     W                   S S E  Q    S S E  S S E   
--------------------------|-------------------|----------------------------|
--------------------------|-------------------|----------------------------|
--------------------------|--5----------------|--5-6---------6-5----5-6----|
--4-3---------3-----4-----|-------------------|----------------------------|
--------------------------|--3----------------|----------------------------|


  S S E  Q    H           S S E  Q    E  E  E  E     W                 
-----------------------|--------------------------|-------------------|
-----------------------|--------------------------|-------------------|
-----------------------|--------------------------|--5----------------|
--3-4------------------|--4-3---------3-----4-----|-------------------|
-----------------------|--------------------------|--3----------------|


  S S E  Q    S S E  S S E     S S E  Q    H           S S E  Q    E  E  E  E   
----------------------------|-----------------------|--------------------------|
----------------------------|-----------------------|--------------------------|
--5-6---------6-5----5-6----|-----------------------|--------------------------|
----------------------------|--3-4------------------|--4-3---------3-----4-----|
----------------------------|-----------------------|--------------------------|


  W                   S S E  Q    S S E  S S E     H        E  E   
-------------------|----------------------------|-----------------|
-------------------|----------------------------|-----------------|
--5----------------|--5-6---------6-5----5-6----|--2--------L-----|
-------------------|----------------------------|--------------2--|
--3----------------|----------------------------|-----------------|


  Q    Q    Q       H.              Q    E  E  E  E     H        E  E   
-----------------|---------------|-------------------|-----------------|
-----------------|---------------|-------------------|-----------------|
--2----4----5----|--1------------|--L----------------|--2--------L-----|
-----------------|---------------|----------2--0--2--|--------------2--|
-----------------|---------------|-------------------|-----------------|


  Q    Q    Q       H.              Q    E  E  E  E     H        E.  S  
-----------------|---------------|-------------------|-----------------|
-----------------|---------------|-------------------|-----------------|
--2----4----5----|--1------------|--L----------------|--2--------L-----|
-----------------|---------------|----------2--0--2--|---------------2-|
-----------------|---------------|-------------------|-----------------|


  Q    Q    Q       H.              Q    Q    E  E     Q.     S S S S S S  
-----------------|---------------|------------------|---------------------|
-----------------|---------------|------------------|---------4-2-0-------|
--2----4----5----|--1------------|--L---------------|--2------------2---1-|
-----------------|---------------|---------------0--|-----------------3---|
-----------------|---------------|------------------|---------------------|


  Q    Q    Q       H.              Q    E  E  E  E     H.            
-----------------|---------------|-------------------|---------------|
-----------------|---------------|-------------------|---------------|
--2----4----5----|--1------------|--L----------------|--2------------|
-----------------|---------------|----------2--0--2--|---------------|
-----------------|---------------|-------------------|---------------|


  H.              H.              Q.     E  E  E     H.            
---------------|---------------|------------------|---------------|
---------------|---------------|------------------|---------------|
--L------------|--2------------|--L---------------|--2------------|
---------------|---------------|---------2--0--2--|---------------|
---------------|---------------|------------------|---------------|


           |--3--|                                                   
  H        E  E  E     H.              H.              H.            
--------------------|---------------|---------------|---------------|
--------------------|---------------|---------------|---------------|
--L--------L-----0--|--2------------|--L------------|--1------------|
--------------2-----|---------------|---------------|---------------|
--------------------|---------------|---------------|---------------|


                                             |--3--|                   
  H        E  E     H.              H        E  E  E     H.            
-----------------|---------------|--------------------|---------------|
-----------------|---------------|--------------------|---------------|
--L--------L-----|--1------------|--L--------L--1-----|--1------------|
--------------4--|---------------|-----------------1--|---------------|
-----------------|---------------|--------------------|---------------|


  H        E  E     H.              H        Q       H.            
-----------------|---------------|----------------|---------------|
-----------------|---------------|----------------|---------------|
--L--------L-----|--1------------|--L--------1----|--0------------|
--------------4--|---------------|----------------|---------------|
-----------------|---------------|----------------|---------------|


  Q.     Q.        H.              H.              Q    H         
----------------|---------------|---------------|----------------|
----------------|---------------|---------------|----------------|
--L------2------|--0------------|--L------------|--L----0--------|
----------------|---------------|---------------|----------------|
----------------|---------------|---------------|----------------|


  E  Q.     Q       H.              H.              H.            
-----------------|---------------|---------------|---------------|
-----------------|---------------|---------------|---------------|
--L--2-----------|--0------------|--L------------|---------------|
-----------------|---------------|---------------|--4------------|
-----------------|---------------|---------------|---------------|


  H.              H.              H.              H.              H.            
---------------|---------------|---------------|---------------|---------------|
---------------|---------------|---------------|---------------|---------------|
---------------|---------------|---------------|---------------|---------------|
--L------------|--4------------|--L------------|--4------------|--L------------|
---------------|---------------|---------------|---------------|---------------|


  H.              H        E  E     H.              H.            
---------------|-----------------|---------------|---------------|
---------------|-----------------|---------------|---------------|
---------------|-----------2-----|---------------|---------------|
--4------------|--L-----------3--|--L------------|--4------------|
---------------|-----------------|---------------|---------------|


                                  5:3                                   
                                  5   5   5   5   5                     
  H.              H.              E.  E.  E.  E.  E.     H        Q     
---------------|---------------|----------------------|----------------|
---------------|---------------|----------------------|----------------|
--2------------|---------------|--0---3---5-----------|----------------|
---------------|--3------------|--------------3---6---|--3-------------|
---------------|---------------|----------------------|----------------|


                                                   |---5---|           
  H.              Q    H           H.              S S S S S H         
---------------|----------------|---------------|----2-4--------------|
---------------|----------------|---------------|--------4-6----------|
---------------|----------------|---------------|------------4--------|
--3------------|--L----2--------|--L------------|---------------------|
---------------|----------------|---------------|---------------------|


  S S S S S S S S S S S S    H.              Q    E  E  Q       Q.     E  Q     
--6-4---------------------|---------------|------------------|-----------------|
------7-6-4---------------|---------------|------------------|-----------------|
------------7-6-4---------|---------------|------------------|-----------------|
------------------7-5-4---|---------------|--3-------3--L----|---------6-------|
------------------------7-|--6------------|------------------|--6---------6----|


  |--3--|                                             
  E  E  E  H           Q.     Q.        H.            
--------------------|----------------|---------------|
--3--3-----3--------|----------------|---------------|
--------3-----------|---------7------|--L------------|
--------------------|----------------|---------------|
--------------------|--5-------------|---------------|


  |--3--|  |---5---|                                             
  E  E  E  S S S S S E  E     E  E  E  E  E  E     H.            
---------------------------|--------------------|---------------|
---------------------------|--------------------|---------------|
---------------------------|-----------------7--|--6------------|
---------------------------|-----------5--7-----|---------------|
--7-----7------7-7-7-7--7--|--7--8--8-----------|---------------|


                           |-3-|                                              
  Q.     Q    E     Q.     S S S Q       E  E  E  E  E  E     E  E  H         
-----------------|--------------------|--------------------|-----------------|
--4--------------|--------------------|--------------------|-----------------|
-----------------|--------------------|--------------------|--------3--------|
--------------5--|--L--------3-6-5----|--L--------3--3--4--|--6--4-----------|
-----------------|--------------------|-----6--6-----------|-----------------|


  Q    H           E  Q    E  E  E     E  E  E  Q.      
----------------|-------------------|------------------|
----------------|-----2----2--2--0--|--0---------------|
--L-------------|-------------------|-----3--0--2------|
----------------|-------------------|------------------|
----------------|-------------------|------------------|


  |--3--|  |--3--|  |--3--|     7 7 7 7 7 7 7               
  E  E  E  E  E  E  E  E  E     S S S S S S S Q    E.  T T  
-----------------------------|-----------------------------|
-----2--2--2-----2-----2-----|--2-0---2-0-2-3--------------|
-----------------------------|------3----------------------|
-----------------------------|----------------4--------4-5-|
-----------------------------|-----------------------------|


  |--3--|  |--3--|                          |-3-|  
  E  E  E  E  E  E  E  E     E  E  E  E  E  S S S  
--------------------------|-----------------------|
--0--------2--3--0--2--3--|--2--0-----------2-3-2-|
-----3--4-----------------|--------3--0-----------|
--------------------------|--------------4--------|
--------------------------|-----------------------|


  |-6-| |-6-| |-6-| |-6-| |-6-| |-6-|                                       
  S S S S S S S S S S S S S S S S S S    E  Q    E  Q       Q    Q    Q     
--------0-2-------0-------0-2-------0-|------------------|-----------------|
--0-2-3-----2-2-3---0-2-3-----2-2-3---|------------------|--0---------0----|
--------------------------------------|--3-------2-------|-------0---------|
--------------------------------------|------------------|-----------------|
--------------------------------------|------------------|-----------------|


  Q    Q    Q       Q.     Q.        Q.     E  Q       E  E  Q    E  E   
--0--------------|----------------|-----------------|-------------------|
-------2---------|---------2------|-----------------|-------------------|
------------3----|--0-------------|-----------------|--------3----3-----|
-----------------|----------------|--4---------4----|----------------3--|
-----------------|----------------|---------4-------|--4--6-------------|


  segue into whatever song you like   
  W                                   
------------------------------------||
------------------------------------||
--4---------------------------------||
------------------------------------||
------------------------------------||




Duration Legend
---------------
W - whole
H - half
Q - quarter
E - 8th
S - 16th
T - 32nd
X - 64th
. - note dotted
|-n-|  - n-tuplets


Tablature Legend
----------------
L - tied note
x - dead note
g - grace note
(n) - ghost note
> - accentuded note
NH - natural harmonic
AH - artificial harmonic
TH - tapped harmonic
SH - semi harmonic
PH - pitch harmonic
h - hammer on
p - pull off
b - bend
br - bendRelease
pb - preBend
pbr - preBendRelease
brb - bendReleaseBend
\n/ - tremolo bar dip
\n - tremolo bar dive
-/n - tremolo bar Release up
/n\ - tremolo bar inverted dip
/n - tremolo bar return
-\n - tremolo bar Release down
S - shift slide
s - legato slide
/ -  slide into from below or out of upwards
\ -  slide into from above or out of downwards
~ - vibrato
W - wide vibrato
tr - trill
TP - tremolo picking
T - tapping
S - slap
P - pop
< - fade in
^ - brush up
v - brush down

            
            
Suggest correction
Creating personal tab
Creating personal tab
You can edit any tab online and save it as your Personal.

You can edit, replace or remove any tab part or add personal notes – all changes will be seen only by you.

Personal tabs can be accessed anytime from any device, even offline.
Learn more »
Give kudos to tab author, rate the tab!
1 2 3 4 5
comments
print report bad tab
guest
Wanna post a correction for this tab? Suggest correction