Oops, an error
Loading. Please wait.

The Deathless Horsie bass

version 1
version 1

Whole song

Interactive

360 views 3 this week
no commentswrite comment
1 2 3 4 5
3 more votes to show rating
add to favorites
×
Save as Personal and add changes to this tab that will be seen only by you. Learn more ›
×
You can save this tab as Personal to edit and correct it or add notes. All changes will be seen only by you. Learn more »
launch autoscroll
font size
0
reset
guitar tuner
edit
Autoscroll
slow
fast
+/-
esc
set tempo
stop
G||-------|-----|-------|-------|-------|-------|-------|-------|-------|
D||-------|-----|-------|-------|-------|-------|-------|-------|-------|
A||-------|-----|-------|-------|-------|-------|-------|-------|-------|
E||-------|-----|-------|-------|-------|-------|-------|-------|-------|


                          Q    E  S. S T S Q.     Q     
-------|-------|-------|-------------------------------|
-------|-------|-------|----------2--4-----------------|
-------|-------|-------|--4----------------------------|
-------|-------|-------|--------------------------2----|


  H        H        E  E     Q    E  S S H        E.  S  
--------------------------|-----------------------------|
--------------------------|-----------------------4---4-|
--------------------------|--2----2--2------------------|
--L--------------------2--|-----------------------------|


  E  S Q    S H        E.  S    Q    E  S. S T S Q.     Q     
-----------------------------|-------------------------------|
-----------------------------|----------2--4-----------------|
-----------------------------|--4----------------------------|
--2--2-----------------2---4-|--------------------------2----|


  H        H        E  E     Q    E  S S H        E.  S  
--------------------------|-----------------------------|
--------------------------|-----------------------4---4-|
--------------------------|--2----2--2------------------|
--L--------------------2--|-----------------------------|


  E  S Q    S H        E.  S    Q    E  S. S T S Q.     Q     
-----------------------------|-------------------------------|
-----------------------------|----------2--4-----------------|
-----------------------------|--4----------------------------|
--2--2-----------------2---4-|--------------------------2----|


  H        H        E  E     Q    E  S S H        E.  S  
--------------------------|-----------------------------|
--------------------------|-----------------------4---4-|
--------------------------|--2----2--2------------------|
--L--------------------2--|-----------------------------|


  E  S Q    S H        E.  S    Q    E  S. S T S Q.     Q     
-----------------------------|-------------------------------|
-----------------------------|----------2--4-----------------|
-----------------------------|--4----------------------------|
--2--2-----------------2---4-|--------------------------2----|


  H        H        E  E     Q    E  S S H        E.  S  
--------------------------|-----------------------------|
--------------------------|-----------------------4---4-|
--------------------------|--2----2--2------------------|
--L--------------------2--|-----------------------------|


  E  S Q    S H        E.  S    Q    E  S. S T S Q.     Q     
-----------------------------|-------------------------------|
-----------------------------|----------2--4-----------------|
-----------------------------|--4----------------------------|
--2--2-----------------2---4-|--------------------------2----|


  H        H        E  E     Q    E  S S H        E.  S  
--------------------------|-----------------------------|
--------------------------|-----------------------4---4-|
--------------------------|--2----2--2------------------|
--L--------------------2--|-----------------------------|


  E  S Q    S H        E.  S    Q    E  S. S T S Q.     Q     
-----------------------------|-------------------------------|
-----------------------------|----------2--4-----------------|
-----------------------------|--4----------------------------|
--2--2-----------------2---4-|--------------------------2----|


  H        H        E  E     Q    E  S S H        E.  S  
--------------------------|-----------------------------|
--------------------------|-----------------------4---4-|
--------------------------|--2----2--2------------------|
--L--------------------2--|-----------------------------|


  E  S Q    S H        E.  S    Q    E  S. S T S Q.     Q     
-----------------------------|-------------------------------|
-----------------------------|----------2--4-----------------|
-----------------------------|--4----------------------------|
--2--2-----------------2---4-|--------------------------2----|


  H        H        E  E     Q    E  S S H        E.  S  
--------------------------|-----------------------------|
--------------------------|-----------------------4---4-|
--------------------------|--2----2--2------------------|
--L--------------------2--|-----------------------------|


  E  S Q    S H        E.  S    Q    E  S. S T S Q.     Q     
-----------------------------|-------------------------------|
-----------------------------|----------2--4-----------------|
-----------------------------|--4----------------------------|
--2--2-----------------2---4-|--------------------------2----|


  H        H        E  E     Q    E  S S H        E.  S  
--------------------------|-----------------------------|
--------------------------|-----------------------4---4-|
--------------------------|--2----2--2------------------|
--L--------------------2--|-----------------------------|


  E  S Q    S H        E.  S    Q    E  S. S T S Q.     Q     
-----------------------------|-------------------------------|
-----------------------------|----------2--4-----------------|
-----------------------------|--4----------------------------|
--2--2-----------------2---4-|--------------------------2----|


  H        H        E  E     Q    E  S S H        E.  S  
--------------------------|-----------------------------|
--------------------------|-----------------------4---4-|
--------------------------|--2----2--2------------------|
--L--------------------2--|-----------------------------|


  E  S Q    S H        E.  S    Q    E  S. S T S Q.     Q     
-----------------------------|-------------------------------|
-----------------------------|----------2--4-----------------|
-----------------------------|--4----------------------------|
--2--2-----------------2---4-|--------------------------2----|


  H        H        E  E     Q    E  S S H        E.  S  
--------------------------|-----------------------------|
--------------------------|-----------------------4---4-|
--------------------------|--2----2--2------------------|
--L--------------------2--|-----------------------2-----|


  E  S Q    S H        E.  S    Q    E  S. S T S Q.     Q     
-----------------------------|-------------------------------|
-----------------------------|----------2--4-----------------|
-----------------------------|--4----------------------------|
--2--2-----------------2---4-|--------------------------2----|


  H        H        E  E     Q    E  S S H        E.  S  
--------------------------|-----------------------------|
--------------------------|-----------------------4---4-|
--------------------------|--2----2--2------------------|
--L--------------------2--|-----------------------------|


  E  S Q    S H        E.  S    Q    E  S. S T S Q.     Q     
-----------------------------|-------------------------------|
-----------------------------|----------2--4-----------------|
-----------------------------|--4----------------------------|
--2--2-----------------2---4-|--------------------------2----|


  H        H        E  E     Q    E  S S H        E.  S  
--------------------------|-----------------------------|
--------------------------|-----------------------4---4-|
--------------------------|--2----2--2------------------|
--L--------------------2--|-----------------------------|


  E  S Q    S H        E.  S    Q    E  S. S T S Q.     Q     
-----------------------------|-------------------------------|
-----------------------------|----------2--4-----------------|
-----------------------------|--4----------------------------|
--2--2-----------------2---4-|--------------------------2----|


  H        H        E  E     Q    E  S S H        E.  S  
--------------------------|-----------------------------|
--------------------------|-----------------------4---4-|
--------------------------|--2----2--2------------------|
--L--------------------2--|-----------------------------|


  E  S Q    S H        E.  S    Q    E  S. S T S Q.     Q     
-----------------------------|-------------------------------|
-----------------------------|----------2--4-----------------|
-----------------------------|--4----------------------------|
--2--2-----------------2---4-|--------------------------2----|


  H        H        E  E     Q    E  S S H        E.  S  
--------------------------|-----------------------------|
--------------------------|-----------------------4---4-|
--------------------------|--2----2--2------------------|
--L--------------------2--|-----------------------------|


  E  S Q    S H        E.  S    Q    E  S. S T S Q.     Q     
-----------------------------|-------------------------------|
-----------------------------|----------2--4-----------------|
-----------------------------|--4----------------------------|
--2--2-----------------2---4-|--------------------------2----|


  H        H        E  E     Q    E  S S H        E.  S  
--------------------------|-----------------------------|
--------------------------|-----------------------4---4-|
--------------------------|--2----2--2------------------|
--L--------------------2--|-----------------------------|


  E  S Q    S H        E.  S    Q    E  S. S T S Q.     Q     
-----------------------------|-------------------------------|
-----------------------------|----------2--4-----------------|
-----------------------------|--4----------------------------|
--2--2-----------------2---4-|--------------------------2----|


  H        H        E  E     Q    E  S S H        E.  S  
--------------------------|-----------------------------|
--------------------------|-----------------------4---4-|
--------------------------|--2----2--2------------------|
--L--------------------2--|-----------------------------|


  E  S Q    S H        E.  S    Q    E  S. S T S Q.     Q     
-----------------------------|-------------------------------|
-----------------------------|----------2--4-----------------|
-----------------------------|--4----------------------------|
--2--2-----------------2---4-|--------------------------2----|


  H        H        E  E     Q    E  S S H        E.  S  
--------------------------|-----------------------------|
--------------------------|-----------------------4---4-|
--------------------------|--2----2--2------------------|
--L--------------------2--|-----------------------------|


  E  S Q    S H        E.  S    Q    E  S. S T S Q.     Q     
-----------------------------|-------------------------------|
-----------------------------|----------2--4-----------------|
-----------------------------|--4----------------------------|
--2--2-----------------2---4-|--------------------------2----|


  H        H        E  E     Q    E  S S H        E.  S  
--------------------------|-----------------------------|
--------------------------|-----------------------4---4-|
--------------------------|--2----2--2------------------|
--L--------------------2--|-----------------------------|


  E  S Q    S H        E.  S    Q    E  S. S T S Q.     Q     
-----------------------------|-------------------------------|
-----------------------------|----------2--4-----------------|
-----------------------------|--4----------------------------|
--2--2-----------------2---4-|--------------------------2----|


  H        H        E  E     Q    E  S S H        E.  S  
--------------------------|-----------------------------|
--------------------------|-----------------------4---4-|
--------------------------|--2----2--2------------------|
--L--------------------2--|-----------------------------|


  E  S Q    S H        E.  S    Q    E  S. S T S Q.     Q     
-----------------------------|-------------------------------|
-----------------------------|----------2--4-----------------|
-----------------------------|--4----------------------------|
--2--2-----------------2---4-|--------------------------2----|


  H        H        E  E     Q    E  S S H        E.  S  
--------------------------|-----------------------------|
--------------------------|-----------------------4---4-|
--------------------------|--2----2--2------------------|
--L--------------------2--|-----------------------------|


  E  S Q    S H        E.  S    Q    E  S. S T S Q.     Q     
-----------------------------|-------------------------------|
-----------------------------|----------2--4-----------------|
-----------------------------|--4----------------------------|
--2--2-----------------2---4-|--------------------------2----|


  H        H        E  E     Q    E  S S H        E.  S  
--------------------------|-----------------------------|
--------------------------|-----------------------4---4-|
--------------------------|--2----2--2------------------|
--L--------------------2--|-----------------------------|


  E  S Q    S H        E.  S    Q    E  S. S T S Q.     Q     
-----------------------------|-------------------------------|
-----------------------------|----------2--4-----------------|
-----------------------------|--4----------------------------|
--2--2-----------------2---4-|--------------------------2----|


  Q    E  S. S T S Q.     Q       H        H        E  E   
-------------------------------|--------------------------|
----------2--4-----------------|--------------------------|
--4----------------------------|--------------------------|
--------------------------2----|--L--------------------2--|


  Q    E  S S H        E.  S    E  S Q    S H        E.  S  
-----------------------------|-----------------------------|
-----------------------4---4-|-----------------------------|
--2----2--2------------------|-----------------------------|
-----------------------------|--2--2-----------------2---4-|


  Q    E  S. S T S Q.     Q       H        H        E  E   
-------------------------------|--------------------------|
----------2--4-----------------|--------------------------|
--4----------------------------|--------------------------|
--------------------------2----|--L--------------------2--|


  Q    E  S S H        E.  S    E  S Q    S H        E.  S  
-----------------------------|-----------------------------|
-----------------------4---4-|-----------------------------|
--2----2--2------------------|-----------------------------|
-----------------------------|--2--2-----------------2---4-|


  Q    E  S. S T S Q.     Q       H        H        E  E   
-------------------------------|--------------------------|
----------2--4-----------------|--------------------------|
--4----------------------------|--------------------------|
--------------------------2----|--L--------------------2--|


  Q    E  S S H        E.  S    E  S Q    S H        E.  S  
-----------------------------|-----------------------------|
-----------------------4---4-|-----------------------------|
--2----2--2------------------|-----------------------------|
-----------------------------|--2--2-----------------2---4-|


  Q    E  S. S T S Q.     Q       H        H        E  E   
-------------------------------|--------------------------|
----------2--4-----------------|--------------------------|
--4----------------------------|--------------------------|
--------------------------2----|--L--------------------2--|


  Q    E  S S H        E.  S    E  S Q    S H        E.  S  
-----------------------------|-----------------------------|
-----------------------4---4-|-----------------------------|
--2----2--2------------------|-----------------------------|
-----------------------------|--2--2-----------------2---4-|


  Q    E  S. S T S Q.     Q       H        H        E  E   
-------------------------------|--------------------------|
----------2--4-----------------|--------------------------|
--4----------------------------|--------------------------|
--------------------------2----|--L--------------------2--|


  Q    E  S S H        E.  S    E  S Q    S H        E.  S  
-----------------------------|-----------------------------|
-----------------------4---4-|-----------------------------|
--2----2--2------------------|-----------------------------|
-----------------------------|--2--2-----------------2---4-|


  Q    E  S. S T S Q.     Q       H        H        E  E   
-------------------------------|--------------------------|
----------2--4-----------------|--------------------------|
--4----------------------------|--------------------------|
--------------------------2----|--L--------------------2--|


  Q    E  S S H        E.  S    E  S Q    S H        E.  S  
-----------------------------|-----------------------------|
-----------------------4---4-|-----------------------------|
--2----2--2------------------|-----------------------------|
-----------------------------|--2--2-----------------2---4-|


  Q    E  S. S T S Q.     Q       H        H        E  E   
-------------------------------|--------------------------|
----------2--4-----------------|--------------------------|
--4----------------------------|--------------------------|
--------------------------2----|--L-----------------2--2--|


  W                Q       Q    Q    H        Q       W                 Q     
------------------------|--------------------------|-------------------------|
------------------------|--------------------------|-------------------------|
--2----------------L----|--------------------------|--2~----------------L----|
------------------------|--2------------------2----|-------------------------|


  W                Q                      
------------------------|-------|-------||
------------------------|-------|-------||
--L----------------L----|-------|-------||
------------------------|-------|-------||




Duration Legend
---------------
W - whole
H - half
Q - quarter
E - 8th
S - 16th
T - 32nd
X - 64th
. - note dotted
|-n-|  - n-tuplets


Tablature Legend
----------------
L - tied note
x - dead note
g - grace note
(n) - ghost note
> - accentuded note
NH - natural harmonic
AH - artificial harmonic
TH - tapped harmonic
SH - semi harmonic
PH - pitch harmonic
h - hammer on
p - pull off
b - bend
br - bendRelease
pb - preBend
pbr - preBendRelease
brb - bendReleaseBend
\n/ - tremolo bar dip
\n - tremolo bar dive
-/n - tremolo bar Release up
/n\ - tremolo bar inverted dip
/n - tremolo bar return
-\n - tremolo bar Release down
S - shift slide
s - legato slide
/ -  slide into from below or out of upwards
\ -  slide into from above or out of downwards
~ - vibrato
W - wide vibrato
tr - trill
TP - tremolo picking
T - tapping
S - slap
P - pop
< - fade in
^ - brush up
v - brush down

            
            
Suggest correction
Creating personal tab
Creating personal tab
You can edit any tab online and save it as your Personal.

You can edit, replace or remove any tab part or add personal notes – all changes will be seen only by you.

Personal tabs can be accessed anytime from any device, even offline.
Learn more »
Give kudos to tab author, rate the tab!
1 2 3 4 5
comments
print report bad tab
guest
Wanna post a correction for this tab? Suggest correction