Oops, an error
Loading. Please wait.

6 Years 6 Feet Under The Influence album tab

115 views 1 this week
no commentswrite comment
1 2 3 4 5
1 last vote to show rating
add to favorites
×
Save as Personal and add changes to this tab that will be seen only by you. Learn more ›
×
You can save this tab as Personal to edit and correct it or add notes. All changes will be seen only by you. Learn more »
launch autoscroll
font size
0
reset
how to read this tab
guitar tuner
edit
Autoscroll
slow
fast
+/-
esc
set tempo
stop
This album tab is created by Living Dead 31.

Frankenstein Drag Queens From Planet 13 - 6 Years 6 Feet Under The Influence (2004)

Tuning: Standard




1. Too Dead To Die



[Intro]:


E-----------------------------10h12b-10/9---
B--10-10-8-10--10--8-10--10-----------------
G-------------------------------------------
D-------------------------------------------
A-------------------------------------------
E-------------------------------------------  (x3)


E-------------------------
B--10-10-8-10--10-10--8---
G-------------------------
D-------------------------
A-------------------------
E-------------------------


[Verse]:


E-------------------------------
B-------------------------------
G-------------------------------
D--5-6-7-7--7-7--7-7-7--7-7-7---
A--5-6-7-7--7-7--7-7-7--7-7-7---
E--3-4-5-5--5-5--5-5-5--5-5-5--- (x4)


E-----------------------------------------------------
B-----------------------------------------------------
G--7-7-7--7-7-7--7-7-7---5-6-7-7--7-7--7-7-7--7-7-7---
D--7-7-7--7-7-7--7-7-7---5-6-7-7--7-7--7-7-7--7-7-7---
A--5-5-5--5-5-5--5-5-5---3-4-5-5--5-5--5-5-5--5-5-5---
E-----------------------------------------------------


[Pre-Chorus]:


E-------------------------------
B-------------------------------
G-------------------------------
D--5-6-7-7--7-7--7-7-7--7-7-7---
A--5-6-7-7--7-7--7-7-7--7-7-7---
E--3-4-5-5--5-5--5-5-5--5-5-5--- (x2)


[Chorus]:


E-----------------------------------------------------------------
B-----------------------------------------------------------------
G--9--9-9--9--9-9--7--7-7--7--7-----------------------------------
D--9--9-9--9--9-9--7--7-7--7--7--7--7-7--7-7-7--7-7-7--7-7-7--7---
A--7--7-7--7--7-7--5--5-5--5--5--7--7-7--7-7-7--7-7-7--7-7-7--7---
E--------------------------------5--5-5--5-5-5--5-5-5--5-5-5--5---



[Verse]:



E-----------------------------10h12b-10/9---
B--10-10-8-10--10--8-10--10-----------------
G-------------------------------------------
D-------------------------------------------
A-------------------------------------------
E-------------------------------------------  (x3)


E-------------------------
B--10-10-8-10--10-10--8---
G-------------------------
D-------------------------
A-------------------------
E-------------------------


E-------------------------------
B-------------------------------
G-------------------------------
D--5-6-7-7--7-7--7-7-7--7-7-7---
A--5-6-7-7--7-7--7-7-7--7-7-7---
E--3-4-5-5--5-5--5-5-5--5-5-5--- (x4)


E-----------------------------------------------------
B-----------------------------------------------------
G--7-7-7--7-7-7--7-7-7---5-6-7-7--7-7--7-7-7--7-7-7---
D--7-7-7--7-7-7--7-7-7---5-6-7-7--7-7--7-7-7--7-7-7---
A--5-5-5--5-5-5--5-5-5---3-4-5-5--5-5--5-5-5--5-5-5---
E-----------------------------------------------------


[Pre-Chorus]:


E-------------------------------
B-------------------------------
G-------------------------------
D--5-6-7-7--7-7--7-7-7--7-7-7---
A--5-6-7-7--7-7--7-7-7--7-7-7---
E--3-4-5-5--5-5--5-5-5--5-5-5--- (x2)


[Chorus]:


E-----------------------------------------------------------------
B-----------------------------------------------------------------
G--9--9-9--9--9-9--7--7-7--7--7-----------------------------------
D--9--9-9--9--9-9--7--7-7--7--7--7--7-7--7-7-7--7-7-7--7-7-7--7---
A--7--7-7--7--7-7--5--5-5--5--5--7--7-7--7-7-7--7-7-7--7-7-7--7---
E--------------------------------5--5-5--5-5-5--5-5-5--5-5-5--5---



[Bridge]:


E-----------------------------------------------------------------------------------------
B-----------------------------------------------------------------------------------------
G-----------------------------------------------------------7--7-7--7-7-7--7-7-7--7-7-7---
D--7-7-7--7-7-7--7-7-7--7-7-7--7--7-7--7-7-7--7-7-7--7-7-7--7--7-7--7-7-7--7-7-7--7-7-7---
A--7-7-7--7-7-7--7-7-7--7-7-7--7--7-7--7-7-7--7-7-7--7-7-7--5--5-5--5-5-5--5-5-5--5-5-5---
E--5-5-5--5-5-5--5-5-5--5-5-5--5--5-5--5-5-5--5-5-5--5-5-5--------------------------------


E--------------------------------
B--------------------------------
G--------------------------------
D--7--7-7--7-7-7--7-7-7--7-7-7---
A--7--7-7--7-7-7--7-7-7--7-7-7---
E--5--5-5--5-5-5--5-5-5--5-5-5---


E-----------------------------------------------------------------
B-----------------------------------------------------------------
G--9--9-9--9--9-9--7--7-7--7--7-----------------------------------
D--9--9-9--9--9-9--7--7-7--7--7--7--7-7--7-7-7--7-7-7--7-7-7--7---
A--7--7-7--7--7-7--5--5-5--5--5--7--7-7--7-7-7--7-7-7--7-7-7--7---
E--------------------------------5--5-5--5-5-5--5-5-5--5-5-5--5---


E------------------------------------
B------------------------------------
G------------------------------------
D--7--------7--------7------7----5---
A--7--------7--------7------7----5---
E--5--------5--------5------5----3---


[Verse]:


E-------------------------------
B-------------------------------
G-------------------------------
D--5-6-7-7--7-7--7-7-7--7-7-7---
A--5-6-7-7--7-7--7-7-7--7-7-7---
E--3-4-5-5--5-5--5-5-5--5-5-5--- (x4)


E-----------------------------------------------------
B-----------------------------------------------------
G--7-7-7--7-7-7--7-7-7---5-6-7-7--7-7--7-7-7--7-7-7---
D--7-7-7--7-7-7--7-7-7---5-6-7-7--7-7--7-7-7--7-7-7---
A--5-5-5--5-5-5--5-5-5---3-4-5-5--5-5--5-5-5--5-5-5---
E-----------------------------------------------------


[Pre-Chorus]:


E-------------------------------
B-------------------------------
G-------------------------------
D--5-6-7-7--7-7--7-7-7--7-7-7---
A--5-6-7-7--7-7--7-7-7--7-7-7---
E--3-4-5-5--5-5--5-5-5--5-5-5--- (x2)


[Chorus]:


E-----------------------------------------------------------------
B-----------------------------------------------------------------
G--9--9-9--9--9-9--7--7-7--7--7-----------------------------------
D--9--9-9--9--9-9--7--7-7--7--7--7--7-7--7-7-7--7-7-7--7-7-7--7---
A--7--7-7--7--7-7--5--5-5--5--5--7--7-7--7-7-7--7-7-7--7-7-7--7---
E--------------------------------5--5-5--5-5-5--5-5-5--5-5-5--5--- (x2)


[Outro]:


E--------------------------------------------
B--------------------------------------------
G--9--9-9--9--9-9--7--7-7--7--7--------------
D--9--9-9--9--9-9--7--7-7--7--7--7---7---7---
A--7--7-7--7--7-7--5--5-5--5--5--7---7---7---
E--------------------------------5---5---5---






2.  Evil Is Good


[Intro]:


E----------------------------------------------------
B----------------------------------------------------
G----------------------------------------------------
D----------------------------------------------------
A----------------------------------------------------
E--7--8-7-8-7-5---2-------7--8-7-8-7-5-7---8-7-5-2--- (x2)


[Verse]:



E----------------------------------------------------
B----------------------------------------------------
G----------------------------------------------------
D----------------------------------------------------
A----------------------------------------------------
E--7--8-7-8-7-5---2-------7--8-7-8-7-5-7---8-7-5-2---


E------------------------------------------------------
B------------------------------------------------------
G------------------------------------------------------
D------------------------------------------10--9-7-4---
A------------------------------------------10--9-7-4---
E--7--8-7-8-7-5---2-------7--8-7-8-7-5-7---8---7-5-2---


E--------------------------------------------------------------------
B--------------------------------------------------------------------
G--------------------------------------------------------------------
D--9--10--9--10--9--7---4-----9--10--9--10--9--7--9---10--9--7---4---
A--9--10--9--10--9--7---4-----9--10--9--10--9--7--9---10--9--7---4---
E--7--8---7--8---7--5---2-----7--8---7--8---7--5--7---8---7--5---2--- (x2)


E----------------------------------------------------
B----------------------------------------------------
G----------------------------------------------------
D----------------------------------------------------
A----------------------------------------------------
E--7--8-7-8-7-5---2-------7--8-7-8-7-5-7---8-7-5-2---


E------------------------------------------------------
B------------------------------------------------------
G------------------------------------------------------
D------------------------------------------10--9-7-4---
A------------------------------------------10--9-7-4---
E--7--8-7-8-7-5---2-------7--8-7-8-7-5-7---8---7-5-2---


[Chorus]:


E-------------------------------------------------------------------
B-------------------------------------------------------------------
G-------------------------------------------------------------------
D--9---9-9-9-7---7-7-7---4---9--10--9--10--9--7--9---10--9--7---4---
A--9---9-9-9-7---7-7-7---4---9--10--9--10--9--7--9---10--9--7---4---
E--7---7-7-7-5---5-5-5---2---7--8---7--8---7--5--7---8---7--5---2---


E-------------------------------------------
B-------------------------------------------
G-------------------------------------------
D--9---9-9-9-7---7-7-7---9---9-9-9-7--7-7---
A--9---9-9-9-7---7-7-7---9---9-9-9-7--7-7---
E--7---7-7-7-5---5-5-5---7---7-7-7-5--5-5---

E--------------------------------------------------------------------
B--------------------------------------------------------------------
G--------------------------------------------------------------------
D--9--10--9--10--9--7---4-----9--10--9--10--9--7--9---10--9--7---4---
A--9--10--9--10--9--7---4-----9--10--9--10--9--7--9---10--9--7---4---
E--7--8---7--8---7--5---2-----7--8---7--8---7--5--7---8---7--5---2--- (x2)


[Verse]:


E----------------------------------------------------
B----------------------------------------------------
G----------------------------------------------------
D----------------------------------------------------
A----------------------------------------------------
E--7--8-7-8-7-5---2-------7--8-7-8-7-5-7---8-7-5-2---


E------------------------------------------------------
B------------------------------------------------------
G------------------------------------------------------
D------------------------------------------10--9-7-4---
A------------------------------------------10--9-7-4---
E--7--8-7-8-7-5---2-------7--8-7-8-7-5-7---8---7-5-2---


[Chorus]:


E-------------------------------------------------------------------
B-------------------------------------------------------------------
G-------------------------------------------------------------------
D--9---9-9-9-7---7-7-7---4---9--10--9--10--9--7--9---10--9--7---4---
A--9---9-9-9-7---7-7-7---4---9--10--9--10--9--7--9---10--9--7---4---
E--7---7-7-7-5---5-5-5---2---7--8---7--8---7--5--7---8---7--5---2---


E-------------------------------------------
B-------------------------------------------
G-------------------------------------------
D--9---9-9-9-7---7-7-7---9---9-9-9-7--7-7---
A--9---9-9-9-7---7-7-7---9---9-9-9-7--7-7---
E--7---7-7-7-5---5-5-5---7---7-7-7-5--5-5---

E--------------------------------------------------------------------
B--------------------------------------------------------------------
G--------------------------------------------------------------------
D--9--10--9--10--9--7---4-----9--10--9--10--9--7--9---10--9--7---4---
A--9--10--9--10--9--7---4-----9--10--9--10--9--7--9---10--9--7---4---
E--7--8---7--8---7--5---2-----7--8---7--8---7--5--7---8---7--5---2--- (x2)


[Outro]:


E--------------------------------------------------------------------
B--------------------------------------------------------------------
G--------------------------------------------------------------------
D--9--10--9--10--9--7---4-----9--10--9--10--9--7--9---10--9--7---4---
A--9--10--9--10--9--7---4-----9--10--9--10--9--7--9---10--9--7---4---
E--7--8---7--8---7--5---2-----7--8---7--8---7--5--7---8---7--5---2--- (x2)


3. Rambo


[Intro]:


E--------------------------------------------------------------------
A--------------------------------------------------------------------
B--------------------------------------------------------------------
G--------------------------------------------------------------------
D--------------------------------------------------------------------
A--------------------------------------------------------------------
E--7-7-7-7-7-7-7-7-7-7-7-7-7-7-7-7-0-0-0-0-0-0-0-0-2-2-2-2-2-2-2-2--- (x
   . . . . . . . . . . . . . . . . . . . . . . . . . . . . . . . .




E--------------------------------
B--------------------------------
G--------------------------------
D------------------------2---4---
A------------------------2---4---
E--7-7-7-7-7-7-7-7--/----0---2---
   . . . . . . .   

[Verse]:


E--------------------------------------------------------------------
A--------------------------------------------------------------------
B--------------------------------------------------------------------
G--------------------------------------------------------------------
D--9-9-9-9-9-9-9-9-9-9-9-9-9-9-9-9-2-2-2-2-2-2-2-2-4-4-4-4-4-4-4-4---
A--9-9-9-9-9-9-9-9-9-9-9-9-9-9-9-9-2-2-2-2-2-2-2-2-4-4-4-4-4-4-4-4---
E--7-7-7-7-7-7-7-7-7-7-7-7-7-7-7-7-0-0-0-0-0-0-0-0-2-2-2-2-2-2-2-2---

[Chorus]:

E--------------------------------------------------------------------
A--------------------------------------------------------------------
B--------------------------------------------------------------------
G--------------------------------------------------------------------
D--9-9-9-9-9-9-9-9-9-9-9-9-9-9-9-9-2-2-2-2-2-2-2-2-4-4-4-4-4-4-4-4---
A--9-9-9-9-9-9-9-9-9-9-9-9-9-9-9-9-2-2-2-2-2-2-2-2-4-4-4-4-4-4-4-4---
E--7-7-7-7-7-7-7-7-7-7-7-7-7-7-7-7-0-0-0-0-0-0-0-0-2-2-2-2-2-2-2-2---







4. Good Mourning Dolly




5. We Have To Kill You Now


[Intro]:

E-------------------------------
B-------------------------------
G-------------------------------
D--2-2---2-2---2-2---2-2--2-3---
A--2-2---2-2---2-2---2-2--2-3---
E--0-0---0-0---0-0---0-0--0-1--- (x2)


E-------------------------------------------
B-------------------------------------------
G-------------------------------------------
D--2-2-------2-2-------2-2-------2-2--2-3---
A--2-2---7/--2-2---7/--2-2---7/--2-2--2-3---
E--0-0-------0-0-------0-0-------0-0--0-1--- (x2)


[Verse]:


E-------------------------------
B-------------------------------
G-------------------------------
D--2-2---2-2---2-2---2-2--2-3---
A--2-2---2-2---2-2---2-2--2-3---
E--0-0---0-0---0-0---0-0--0-1--- (x2)


E---------------------------------------------------------------------------
B---------------------------------------------------------------------------
G---------------------------------------------------------------------------
D--5-5-5-5-5-5-5--4-4-4-4-4-4-4---2-2--5/4--2-2--5/4---2-2--5/4--2-2--5/4---
A--5-5-5-5-5-5-5--4-4-4-4-4-4-4---2-2--5/4--2-2--5/4---2-2--5/4--2-2--5/4---
E--3-3-3-3-3-3-3--2-2-2-2-2-2-2---0-0--3/2--0-0--3/2---0-0--3/2--0-0--3/2---

E-------------------------------
B-------------------------------
G-------------------------------
D--2-2---2-2---2-2---2-2--2-3---
A--2-2---2-2---2-2---2-2--2-3---
E--0-0---0-0---0-0---0-0--0-1--- (x2)

E---------------------------------------------------------------------------
B---------------------------------------------------------------------------
G---------------------------------------------------------------------------
D--5-5-5-5-5-5-5--4-4-4-4-4-4-4---2-2--5/4--2-2--5/4---2-2--5/4--2-2--5/4---
A--5-5-5-5-5-5-5--4-4-4-4-4-4-4---2-2--5/4--2-2--5/4---2-2--5/4--2-2--5/4---
E--3-3-3-3-3-3-3--2-2-2-2-2-2-2---0-0--3/2--0-0--3/2---0-0--3/2--0-0--3/2---


[Pre-Chorus]:

E---------------------------------
B---------------------------------
G---------------------------------
D--5-5-5-5-5-5-5--4-4-4-4-4-4-4---
A--5-5-5-5-5-5-5--4-4-4-4-4-4-4---
E--3-3-3-3-3-3-3--2-2-2-2-2-2-2---


[Chorus]:


E-------------------------------
B-------------------------------
G-------------------------------
D--2-2---2-2---2-2---2-2--2-3---
A--2-2---2-2---2-2---2-2--2-3---
E--0-0---0-0---0-0---0-0--0-1--- (x3)

E---------------------
B---------------------
G---------------------
D--2-2----------2-2---
A--2-2----------2-2---
E--0-0----------0-0---


[Verse]:


E-------------------------------
B-------------------------------
G-------------------------------
D--2-2---2-2---2-2---2-2--2-3---
A--2-2---2-2---2-2---2-2--2-3---
E--0-0---0-0---0-0---0-0--0-1--- (x4)

E---------------------------------------------------------------------------
B---------------------------------------------------------------------------
G---------------------------------------------------------------------------
D--5-5-5-5-5-5-5--4-4-4-4-4-4-4---2-2--5/4--2-2--5/4---2-2--5/4--2-2--5/4---
A--5-5-5-5-5-5-5--4-4-4-4-4-4-4---2-2--5/4--2-2--5/4---2-2--5/4--2-2--5/4---
E--3-3-3-3-3-3-3--2-2-2-2-2-2-2---0-0--3/2--0-0--3/2---0-0--3/2--0-0--3/2---


[Pre-Chorus]:


E---------------------------------
B---------------------------------
G---------------------------------
D--5-5-5-5-5-5-5--4-4-4-4-4-4-4---
A--5-5-5-5-5-5-5--4-4-4-4-4-4-4---
E--3-3-3-3-3-3-3--2-2-2-2-2-2-2---


[Chorus]:


E-------------------------------
B-------------------------------
G-------------------------------
D--2-2---2-2---2-2---2-2--2-3---
A--2-2---2-2---2-2---2-2--2-3---
E--0-0---0-0---0-0---0-0--0-1--- (x3)

E---------------------
B---------------------
G---------------------
D--2-2----------2-2---
A--2-2----------2-2---
E--0-0----------0-0---


[Bridge]:


E-------------------------------
B-------------------------------
G-------------------------------
D--2-2---2-2---2-2---2-2--2-3---
A--2-2---2-2---2-2---2-2--2-3---
E--0-0---0-0---0-0---0-0--0-1--- (x2)

E---------------------------------------------------------------------------
B---------------------------------------------------------------------------
G---------------------------------------------------------------------------
D--5-5-5-5-5-5-5--4-4-4-4-4-4-4---2-2--5/4--2-2--5/4---2-2--5/4--2-2--5/4---
A--5-5-5-5-5-5-5--4-4-4-4-4-4-4---2-2--5/4--2-2--5/4---2-2--5/4--2-2--5/4---
E--3-3-3-3-3-3-3--2-2-2-2-2-2-2---0-0--3/2--0-0--3/2---0-0--3/2--0-0--3/2---

E---------------------------------
B---------------------------------
G---------------------------------
D--5-5-5-5-5-5-5--4-4-4-4-4-4-4---
A--5-5-5-5-5-5-5--4-4-4-4-4-4-4---
E--3-3-3-3-3-3-3--2-2-2-2-2-2-2---


[Verse]:


E-------------------------------
B-------------------------------
G-------------------------------
D--2-2---2-2---2-2---2-2--2-3---
A--2-2---2-2---2-2---2-2--2-3---
E--0-0---0-0---0-0---0-0--0-1--- (x4)

E---------------------------------------------------------------------------
B---------------------------------------------------------------------------
G---------------------------------------------------------------------------
D--5-5-5-5-5-5-5--4-4-4-4-4-4-4---2-2--5/4--2-2--5/4---2-2--5/4--2-2--5/4---
A--5-5-5-5-5-5-5--4-4-4-4-4-4-4---2-2--5/4--2-2--5/4---2-2--5/4--2-2--5/4---
E--3-3-3-3-3-3-3--2-2-2-2-2-2-2---0-0--3/2--0-0--3/2---0-0--3/2--0-0--3/2---


[Pre-Chorus]:


E---------------------------------
B---------------------------------
G---------------------------------
D--5-5-5-5-5-5-5--4-4-4-4-4-4-4---
A--5-5-5-5-5-5-5--4-4-4-4-4-4-4---
E--3-3-3-3-3-3-3--2-2-2-2-2-2-2---


[Chorus]:


E-------------------------------
B-------------------------------
G-------------------------------
D--2-2---2-2---2-2---2-2--2-3---
A--2-2---2-2---2-2---2-2--2-3---
E--0-0---0-0---0-0---0-0--0-1--- (x3)

E---------------------
B---------------------
G---------------------
D--2-2----------2-2---
A--2-2----------2-2---
E--0-0----------0-0---






6. Nightbreed


[Intro]:


E-----------------------------------------------------------
B-----------------------------------------------------------
G-----------------------------------------------------------
D--5--5-7--2---2-2--5--5-7---2--2-2--5--5-7--2----5-5-4-2---
A--5--5-7--2---2-2--5--5-7---2--2-2--5--5-7--2----5-5-4-2---
E--3--3-5--0---0-0--3--3-5---0--0-0--3--3-5--0----3-3-2-0--- (x2)


[Verse]:


E-----------------------------------------------------------
B-----------------------------------------------------------
G-----------------------------------------------------------
D--5--5-7--2---2-2--5--5-7---2--2-2--5--5-7--2----5-5-4-2---
A--5--5-7--2---2-2--5--5-7---2--2-2--5--5-7--2----5-5-4-2---
E--3--3-5--0---0-0--3--3-5---0--0-0--3--3-5--0----3-3-2-0--- (x2)


E-----------------------------------------------------------
B-----------------------------------------------------------
G-----------------------------------------------------------
D--5--5-7--2---2-2--5--5-7---2--2-2--5--5-7--2----5-5-4-2---
A--5--5-7--2---2-2--5--5-7---2--2-2--5--5-7--2----5-5-4-2---
E--3--3-5--0---0-0--3--3-5---0--0-0--3--3-5--0----3-3-2-0--- (x2)
   .  . .  .   . .  .  . .   .  . .  .  . .  .    . . . .

E-----------------------------------------------------------
B-----------------------------------------------------------
G-----------------------------------------------------------
D--5--5-7--2---2-2--5--5-7---2--2-2--5--5-7--2----5-5-4-2---
A--5--5-7--2---2-2--5--5-7---2--2-2--5--5-7--2----5-5-4-2---
E--3--3-5--0---0-0--3--3-5---0--0-0--3--3-5--0----3-3-2-0---

E-----------------------------------------------------------
B-----------------------------------------------------------
G-----------------------------------------------------------
D--5--5-7--2---2-2--5--5-7---2--2-2--5--5-7--2----5-5-4-2---
A--5--5-7--2---2-2--5--5-7---2--2-2--5--5-7--2----5-5-4-2---
E--3--3-5--0---0-0--3--3-5---0--0-0--3--3-5--0----3-3-2-0--- (x2)
   .  . .  .   . .  .  . .   .  . .  .  . .  .    . . . .


[Pre-Chorus]:


E----------------------------------------------------------------------------
B----------------------------------------------------------------------------
G----------------------------------------------------------------------------
D--7-7-7-7-7-7-7-7--5-5-5--4-4-4---2-2---2-2----7-7-7-7-7-7-7-7--5-5-5-5-4---
A--7-7-7-7-7-7-7-7--5-5-5--4-4-4---2-2---2-2----7-7-7-7-7-7-7-7--5-5-5-5-4---
E--5-5-5-5-5-5-5-5--3-3-3--2-2-2---0-0---0-0----5-5-5-5-5-5-5-5--3-3-3-3-2---


[Chorus]:

E-----------------------------------------------------------
B-----------------------------------------------------------
G-----------------------------------------------------------
D--5--5-7--2---2-2--5--5-7---2--2-2--5--5-7--2----5-5-4-2---
A--5--5-7--2---2-2--5--5-7---2--2-2--5--5-7--2----5-5-4-2---
E--3--3-5--0---0-0--3--3-5---0--0-0--3--3-5--0----3-3-2-0--- (x3)


[Verse]:


E-----------------------------------------------------------
B-----------------------------------------------------------
G-----------------------------------------------------------
D--5--5-7--2---2-2--5--5-7---2--2-2--5--5-7--2----5-5-4-2---
A--5--5-7--2---2-2--5--5-7---2--2-2--5--5-7--2----5-5-4-2---
E--3--3-5--0---0-0--3--3-5---0--0-0--3--3-5--0----3-3-2-0--- (x2)
   .  . .  .   . .  .  . .   .  . .  .  . .  .    . . . .


[Pre-Chorus]:


E----------------------------------------------------------------------------
B----------------------------------------------------------------------------
G----------------------------------------------------------------------------
D--7-7-7-7-7-7-7-7--5-5-5--4-4-4---2-2---2-2----7-7-7-7-7-7-7-7--5-5-5-5-4---
A--7-7-7-7-7-7-7-7--5-5-5--4-4-4---2-2---2-2----7-7-7-7-7-7-7-7--5-5-5-5-4---
E--5-5-5-5-5-5-5-5--3-3-3--2-2-2---0-0---0-0----5-5-5-5-5-5-5-5--3-3-3-3-2---


[Chorus]:

E-----------------------------------------------------------
B-----------------------------------------------------------
G-----------------------------------------------------------
D--5--5-7--2---2-2--5--5-7---2--2-2--5--5-7--2----5-5-4-2---
A--5--5-7--2---2-2--5--5-7---2--2-2--5--5-7--2----5-5-4-2---
E--3--3-5--0---0-0--3--3-5---0--0-0--3--3-5--0----3-3-2-0--- (x2)


[Bridge]:

E-------------------------------------------------
B-------------------------------------------------
G-------------------------------------------------
D--2-2--2-2----2-2--2-2----2-2--2-2----2-2--2-2---
A--2-2--2-2----2-2--2-2----2-2--2-2----2-2--2-2---
E--0-0--0-0----0-0--0-0----0-0--0-0----0-0--0-0--- (x2)

E------------------------------------------------------------------------------------
B------------------------------------------------------------------------------------
G------------------------------------------------------------------------------------
D--/-7-7-7-7-7-7-7-7--5-5-5--4-4-4---2-2---2-2---2--2---7-7-7-7-7-7-7-7--5-5-5-5-4---
A--/-7-7-7-7-7-7-7-7--5-5-5--4-4-4---2-2---2-2---2--2---7-7-7-7-7-7-7-7--5-5-5-5-4---
E--/-5-5-5-5-5-5-5-5--3-3-3--2-2-2---0-0---0-0---0--0---5-5-5-5-5-5-5-5--3-3-3-3-2---


[Verse]:

E-----------------------------------------------------------
B-----------------------------------------------------------
G-----------------------------------------------------------
D--5--5-7--2---2-2--5--5-7---2--2-2--5--5-7--2----5-5-4-2---
A--5--5-7--2---2-2--5--5-7---2--2-2--5--5-7--2----5-5-4-2---
E--3--3-5--0---0-0--3--3-5---0--0-0--3--3-5--0----3-3-2-0--- (x2)
   .  . .  .   . .  .  . .   .  . .  .  . .  .    . . . .


[Chorus]:

E-----------------------------------------------------------
B-----------------------------------------------------------
G-----------------------------------------------------------
D--5--5-7--2---2-2--5--5-7---2--2-2--5--5-7--2----5-5-4-2---
A--5--5-7--2---2-2--5--5-7---2--2-2--5--5-7--2----5-5-4-2---
E--3--3-5--0---0-0--3--3-5---0--0-0--3--3-5--0----3-3-2-0--- (x2)

[Outro]:

E-----------------------------------------------------------
B-----------------------------------------------------------
G-----------------------------------------------------------
D--5--5-7--2---2-2--5--5-7---2--2-2--5--5-7--2----5-5-4-2---
A--5--5-7--2---2-2--5--5-7---2--2-2--5--5-7--2----5-5-4-2---
E--3--3-5--0---0-0--3--3-5---0--0-0--3--3-5--0----3-3-2-0--- (x2)






7. Transmission DEAD





8. Scary Song



[Intro]:

E--------------------
B--------------------
G--------------------
D--2---5---4/5/4-2---
A--2---5---4/5/4-2---
E--0---3---2/3/2-0--- (x4)


[Verse]:

E-------------------------------------------
B-------------------------------------------
G-------------------------------------------
D--2-2--2-2--3-3--3-3--4-4--4-4--5-5--4-4---
A--2-2--2-2--3-3--3-3--4-4--4-4--5-5--4-4---
E--0-0--0-0--1-1--1-1--2-2--2-2--3-3--2-2--- (x3)
   . .  . .  . .  . .  . .  . .  . .  . .

E---------------------
B---------------------
G---------------------
D--2--------2-2-------
A--2--------2-2-------
E--0----/---0-0---/---


[Pre-Chorus]:


E-------------------------------------------
B-------------------------------------------
G-------------------------------------------
D--2-2--2-2--3-3--3-3--4-4--4-4--5-5--4-4---
A--2-2--2-2--3-3--3-3--4-4--4-4--5-5--4-4---
E--0-0--0-0--1-1--1-1--2-2--2-2--3-3--2-2--- (x3)
   . .  . .  . .  . .  . .  . .  . .  . .

E-----------------
B-----------------
G-----------------
D--2--------2-2---
A--2--------2-2---
E--0----/---0-0---


[Chorus]:


E--------------------
B--------------------
G--------------------
D--2---5---4/5/4-2---
A--2---5---4/5/4-2---
E--0---3---2/3/2-0--- (x4)


[Verse]:


E----------------------------12~-----12/--------
B-----------------------------------------------
G--------------9~-----9-------------------------
D--2~----2--------------------------------------
A-----------------------------------------------
E-------------------------------------------/---


E------------------------------------------
B------------------------------------------
G------------------------------------------
D--2-2--2-2--3-3--3-3--4-4--4-4--5-5--4-4--
A--2-2--2-2--3-3--3-3--4-4--4-4--5-5--4-4--
E--0-0--0-0--1-1--1-1--2-2--2-2--3-3--2-2-- (x3)
   . .  . .  . .  . .  . .  . .  . .  . .

E-----------------
B-----------------
G-----------------
D--2--------2-2---
A--2--------2-2---
E--0----/---0-0---


[Chorus]:


E--------------------
B--------------------
G--------------------
D--2---5---4/5/4-2---
A--2---5---4/5/4-2---
E--0---3---2/3/2-0--- (x4)


[Bridge]:


E-------------------------------------------
B-------------------------------------------
G-------------------------------------------
D--2-2--2-2--3-3--3-3--4-4--4-4--5-5--4-4---
A--2-2--2-2--3-3--3-3--4-4--4-4--5-5--4-4---
E--0-0--0-0--1-1--1-1--2-2--2-2--3-3--2-2--- (x3)
   . .  . .  . .  . .  . .  . .  . .  . .

E------------------
B------------------
G------------------
D--2----x-x--2-2---
A--2----x-x--2-2---
E--0----x-x--0-0---


[Chorus]:


E--------------------
B--------------------
G--------------------
D--2---5---4/5/4-2---
A--2---5---4/5/4-2---
E--0---3---2/3/2-0--- (x4)







9. Rocketship Oddity 13



[Intro]:

E------------------------------------
B------------------------------------
G------------------------------------
D------------------------------------
A------------------------------------
E--9-9-9-9-9-9-9-9-5-5-5-5-4-4-4-4---
   . . . . . . . . . . . . . . . .

[Verse]:

E--------------------
B--------------------
G--------------------
D--11-------7----6---
A--11-------7----6---
E--9--------5----4---

E-------
B-------
G-------
D--11---
A--11---
E--9----


E--------------------
B--------------------
G--------------------
D--11-------7----6---
A--11-------7----6---
E--9--------5----4---


[Chorus]:


E--------------------
B--------------------
G--------------------
D--11-------7----6---
A--11-------7----6---
E--9--------5----4---

[Bridge]:

E--------------------
B--------------------
G--------------------
D--11-------7----6---
A--11-------7----6---
E--9--------5----4---

[Chorus]:

E--------------------
B--------------------
G--------------------
D--11-------7----6---
A--11-------7----6---
E--9--------5----4---






10. Kung Fu You



[Intro]:

E----------------------------------------------------------------
B----------------------------------------------------------------
G--7-7-7-7-6-4--7-7-7-7-6-4--------------------------------------
D--7-7-7-7-6-4--7-7-7-7-6-4--5--5-5-5-5-5-5-5--7-7-7-7-7-7-7-7---
A--5-5-5-5-4-2--5-5-5-5-4-2--5--5-5-5-5-5-5-5--7-7-7-7-7-7-7-7---
E----------------------------3--3-3-3-3-3-3-3--5-5-5-5-5-5-5-5---


E---------------------------------------------------------------------
B---------------------------------------------------------------------
G--7-7-7-7-6-4--7-7-7-7-6-4--------------------------------------7/---
D--7-7-7-7-6-4--7-7-7-7-6-4--5--5-5-5-5-5-5-5--7-7-7-7-7-7-7-7---7/---
A--5-5-5-5-4-2--5-5-5-5-4-2--5--5-5-5-5-5-5-5--7-7-7-7-7-7-7-7---5/---
E----------------------------3--3-3-3-3-3-3-3--5-5-5-5-5-5-5-5--------


[Verse]:


E-------------------------------------------
B-------------------------------------------
G--------------------------------------7/---
D--5--5-5-5-5-5-5-5--7-7-7-7-7-7-7-7---7/---
A--5--5-5-5-5-5-5-5--7-7-7-7-7-7-7-7---5/---
E--3--3-3-3-3-3-3-3--5-5-5-5-5-5-5-5-------- (x3)


E--------------------------------------
B--------------------------------------
G--------------------------------------
D--5--5-5-5-5-5-5-5--7-7-7-7-7-7-7-7---
A--5--5-5-5-5-5-5-5--7-7-7-7-7-7-7-7---
E--3--3-3-3-3-3-3-3--5-5-5-5-5-5-5-5---


[Chorus]:


E---------------------------------------------------------------------------------------
B---------------------------------------------------------------------------------------
G--------------------------------------7-7-7-7-6-4--------------------------------------
D--5--5-5-5-5-5-5-5--7-7-7-7-7-7-7-7---7-7-7-7-6-4--5--5-5-5-5-5-5-5--7-7-7-7-7-7-7-7---
A--5--5-5-5-5-5-5-5--7-7-7-7-7-7-7-7---5-5-5-5-4-2--5--5-5-5-5-5-5-5--7-7-7-7-7-7-7-7---
E--3--3-3-3-3-3-3-3--5-5-5-5-5-5-5-5----------------3--3-3-3-3-3-3-3--5-5-5-5-5-5-5-5---


E---------------------------
B---------------------------
G--7-7-7-7-6-4--      -7/---
D--7-7-7-7-6-4--      -7/---
A--5-5-5-5-4-2--      -5/---
E--------------- (x8) ------


[Verse]:


E-------------------------------------------
B-------------------------------------------
G--------------------------------------7/---
D--5--5-5-5-5-5-5-5--7-7-7-7-7-7-7-7---7/---
A--5--5-5-5-5-5-5-5--7-7-7-7-7-7-7-7---5/---
E--3--3-3-3-3-3-3-3--5-5-5-5-5-5-5-5-------- (x3)


E--------------------------------------
B--------------------------------------
G--------------------------------------
D--5--5-5-5-5-5-5-5--7-7-7-7-7-7-7-7---
A--5--5-5-5-5-5-5-5--7-7-7-7-7-7-7-7---
E--3--3-3-3-3-3-3-3--5-5-5-5-5-5-5-5---


[Chorus]:


E---------------------------------------------------------------------------------------
B---------------------------------------------------------------------------------------
G--------------------------------------7-7-7-7-6-4--------------------------------------
D--5--5-5-5-5-5-5-5--7-7-7-7-7-7-7-7---7-7-7-7-6-4--5--5-5-5-5-5-5-5--7-7-7-7-7-7-7-7---
A--5--5-5-5-5-5-5-5--7-7-7-7-7-7-7-7---5-5-5-5-4-2--5--5-5-5-5-5-5-5--7-7-7-7-7-7-7-7---
E--3--3-3-3-3-3-3-3--5-5-5-5-5-5-5-5----------------3--3-3-3-3-3-3-3--5-5-5-5-5-5-5-5---


E---------------------------
B---------------------------
G--7-7-7-7-6-4--      -7/---
D--7-7-7-7-6-4--      -7/---
A--5-5-5-5-4-2--      -5/---
E--------------- (x8) ------


[Bridge]:


E-------------------------------------
B-------------------------------------
G--7-7-7-7-6-4--7-7-7-7-6-4-----------
D--7-7-7-7-6-4--7-7-7-7-6-4--5----7---
A--5-5-5-5-4-2--5-5-5-5-4-2--5----7---
E----------------------------3----5--- (x2)


[Chorus]:


E---------------------------------------------------------------------------------------
B---------------------------------------------------------------------------------------
G--------------------------------------7-7-7-7-6-4--------------------------------------
D--5--5-5-5-5-5-5-5--7-7-7-7-7-7-7-7---7-7-7-7-6-4--5--5-5-5-5-5-5-5--7-7-7-7-7-7-7-7---
A--5--5-5-5-5-5-5-5--7-7-7-7-7-7-7-7---5-5-5-5-4-2--5--5-5-5-5-5-5-5--7-7-7-7-7-7-7-7---
E--3--3-3-3-3-3-3-3--5-5-5-5-5-5-5-5----------------3--3-3-3-3-3-3-3--5-5-5-5-5-5-5-5---


E--------------------------
B--------------------------
G--7-7-7-7-6-4--      -7---
D--7-7-7-7-6-4--      -7---
A--5-5-5-5-4-2--      -5---
E--------------- (x8) -----






11. Darkside Of The Tomb





12. I Wanna Rot


[Intro]:

(Guitar 1):

E-----------------      --------
B-----------------      --------
G-----------------      --------
D--2-2--2-2-2-3---      --2-2---
A--2-2--2-2-2-3---      --2-2---
E--0-0--0-0-0-1--- (x7) --0-0---

(Guitar 2):

E-----------------
B--5-5--5-5-5-6---
G-----------------
D-----------------
A-----------------
E----------------- (x7)


[Verse]:


E-----------------
B-----------------
G-----------------
D--2-2--2-2-2-3---
A--2-2--2-2-2-3---
E--0-0--0-0-0-1--- (x7)



[Pre-Chorus]:



(Guitar 1):

E------------
B------------
G------------
D--2-5-4-2---
A--2-5-4-2---
E--0-3-2-0--- (x4)

E--------------
B--------------
G--------------
D--2-3-2-3-2---
A--2-3-2-3-2---
E--0-0-0-0-0---


(Guitar 2):

E-------------
B--5--8-6-5---
G-------------
D-------------
A-------------
E------------- (x4)

E--------------
B--5-6-5-6-5---
G--------------
D--------------
A--------------
E--------------

[Chorus]:

E-----------------      --------
B-----------------      --------
G-----------------      --------
D--2-2--2-2-2-3---      --2-2---
A--2-2--2-2-2-3---      --2-2---
E--0-0--0-0-0-1--- (x7) --0-0---


[Verse]:


E-----------------
B-----------------
G-----------------
D--2-2--2-2-2-3---
A--2-2--2-2-2-3---
E--0-0--0-0-0-1--- (x7)



[Pre-Chorus]:



(Guitar 1):

E------------
B------------
G------------
D--2-5-4-2---
A--2-5-4-2---
E--0-3-2-0--- (x4)

E--------------
B--------------
G--------------
D--2-3-2-3-2---
A--2-3-2-3-2---
E--0-0-0-0-0---


(Guitar 2):

E-------------
B--5--8-6-5---
G-------------
D-------------
A-------------
E------------- (x4)

E--------------
B--5-6-5-6-5---
G--------------
D--------------
A--------------
E--------------

[Chorus]:

E-----------------
B-----------------
G-----------------
D--2-2--2-2-2-3---
A--2-2--2-2-2-3---
E--0-0--0-0-0-1--- (x8)

[Verse]:

E-----------------
B-----------------
G-----------------
D--2-2--2-2-2-3---
A--2-2--2-2-2-3---
E--0-0--0-0-0-1--- (x8)


[Pre-Chorus]:



(Guitar 1):

E------------
B------------
G------------
D--2-5-4-2---
A--2-5-4-2---
E--0-3-2-0--- (x4)

E--------------
B--------------
G--------------
D--2-3-2-3-2---
A--2-3-2-3-2---
E--0-0-0-0-0---


(Guitar 2):

E-------------
B--5--8-6-5---
G-------------
D-------------
A-------------
E------------- (x4)

E--------------
B--5-6-5-6-5---
G--------------
D--------------
A--------------
E--------------

[Chorus]:

E-----------------
B-----------------
G-----------------
D--2-2--2-2-2-3---
A--2-2--2-2-2-3---
E--0-0--0-0-0-1--- (x16)


[Outro]:


E-------------
B--5--8-6-5---
G-------------
D-------------
A-------------
E-------------







13. Chop Off My Hand


[Intro]:

E---------------------------
B---------------------------
G---------------------------
D--2--2--0-2-2-2--7-7-6-6---
A--2--2--0-2-2-2--7-7-6-6---
E--0--0--0-0-0-0--5-5-4-4--- (x4)


[Verse]:


E---------------------------
B---------------------------
G---------------------------
D--2--2--0-2-2-2--7-7-6-6---
A--2--2--0-2-2-2--7-7-6-6---
E--0--0--0-0-0-0--5-5-4-4--- (x4)


[Pre-Chorus]:


E--------------------------------------------------------------------------------------------
B--------------------------------------------------------------------------------------------
G--------------------------------------------------------------------------------------------
D--7-7-7---7-7-7-7-7-7-7-2---2-2-2-2-2-2--7-7-7---7-7-7-7-7-7-7---9-9-9-9-9-9--9-9-9-9-9-9---
A--7-7-7---7-7-7-7-7-7-7-2---2-2-2-2-2-2--7-7-7---7-7-7-7-7-7-7---9-9-9-9-9-9--9-9-9-9-9-9---
E--5-5-5---5-5-5-5-5-5-5-0---0-0-0-0-0-0--5-5-5---5-5-5-5-5-5-5---7-7-7-7-7-7--7-7-7-7-7-7---


[Chorus]:

E-------------------------------------------------------
B-------------------------------------------------------
G--9--9--9--9---6-6-6-6-6-6-----------------------------
D--9--9--9--9---6-6-6-6-6-6--7-7-7-7-7-7--9-9-9-9-9-9---
A--7--7--7--7---4-4-4-4-4-4--7-7-7-7-7-7--9-9-9-9-9-9---
E----------------------------5-5-5-5-5-5--7-7-7-7-7-7---

E-----------------------------------------------------------------------
B-----------------------------------------------------------------------
G--9--9--9--9---6-6-6-6-6-6---------------------------------------------
D--9--9--9--9---6-6-6-6-6-6--7-7-7-7-7-7--9-9-9-9-9-9--7--7-7--6--6-6---
A--7--7--7--7---4-4-4-4-4-4--7-7-7-7-7-7--9-9-9-9-9-9--7--7-7--6--6-6---
E----------------------------5-5-5-5-5-5--7-7-7-7-7-7--5--5-5--4--4-4---


[Verse]:

E---------------------------
B---------------------------
G---------------------------
D--2--2--0-2-2-2--7-7-6-6---
A--2--2--0-2-2-2--7-7-6-6---
E--0--0--0-0-0-0--5-5-4-4--- (x8)


[Pre-Chorus]:


E--------------------------------------------------------------------------------------------
B--------------------------------------------------------------------------------------------
G--------------------------------------------------------------------------------------------
D--7-7-7---7-7-7-7-7-7-7-2---2-2-2-2-2-2--7-7-7---7-7-7-7-7-7-7---9-9-9-9-9-9--9-9-9-9-9-9---
A--7-7-7---7-7-7-7-7-7-7-2---2-2-2-2-2-2--7-7-7---7-7-7-7-7-7-7---9-9-9-9-9-9--9-9-9-9-9-9---
E--5-5-5---5-5-5-5-5-5-5-0---0-0-0-0-0-0--5-5-5---5-5-5-5-5-5-5---7-7-7-7-7-7--7-7-7-7-7-7---


[Chorus]:

E-------------------------------------------------------
B-------------------------------------------------------
G--9--9--9--9---6-6-6-6-6-6-----------------------------
D--9--9--9--9---6-6-6-6-6-6--7-7-7-7-7-7--9-9-9-9-9-9---
A--7--7--7--7---4-4-4-4-4-4--7-7-7-7-7-7--9-9-9-9-9-9---
E----------------------------5-5-5-5-5-5--7-7-7-7-7-7--- (x3)

E-----------------------------------------------------------------------
B-----------------------------------------------------------------------
G--9--9--9--9---6-6-6-6-6-6---------------------------------------------
D--9--9--9--9---6-6-6-6-6-6--7-7-7-7-7-7--9-9-9-9-9-9--7--7-7--6--6-6---
A--7--7--7--7---4-4-4-4-4-4--7-7-7-7-7-7--9-9-9-9-9-9--7--7-7--6--6-6---
E----------------------------5-5-5-5-5-5--7-7-7-7-7-7--5--5-5--4--4-4---


[Bridge]:

E---------------------------
B---------------------------
G---------------------------
D--2--2--0-2-2-2--7-7-6-6---
A--2--2--0-2-2-2--7-7-6-6---
E--0--0--0-0-0-0--5-5-4-4--- (x4)

[Pre-Chorus]:


E--------------------------------------------------------------------------------------------
B--------------------------------------------------------------------------------------------
G--------------------------------------------------------------------------------------------
D--7-7-7---7-7-7-7-7-7-7-2---2-2-2-2-2-2--7-7-7---7-7-7-7-7-7-7---9-9-9-9-9-9--9-9-9-9-9-9---
A--7-7-7---7-7-7-7-7-7-7-2---2-2-2-2-2-2--7-7-7---7-7-7-7-7-7-7---9-9-9-9-9-9--9-9-9-9-9-9---
E--5-5-5---5-5-5-5-5-5-5-0---0-0-0-0-0-0--5-5-5---5-5-5-5-5-5-5---7-7-7-7-7-7--7-7-7-7-7-7---


[Chorus]:

E-------------------------------------------------------
B-------------------------------------------------------
G--9--9--9--9---6-6-6-6-6-6-----------------------------
D--9--9--9--9---6-6-6-6-6-6--7-7-7-7-7-7--9-9-9-9-9-9---
A--7--7--7--7---4-4-4-4-4-4--7-7-7-7-7-7--9-9-9-9-9-9---
E----------------------------5-5-5-5-5-5--7-7-7-7-7-7--- (x3)

E-------------------------------------------------------------------------------------
B-------------------------------------------------------------------------------------
G--9--9--9--9---6-6-6-6-6-6-----------------------------------------------------------
D--9--9--9--9---6-6-6-6-6-6--7-7-7-7-7-7--9-9-9-9-9-9-9-9-9-9-9-9-7--7-7--6--6-6--2---
A--7--7--7--7---4-4-4-4-4-4--7-7-7-7-7-7--9-9-9-9-9-9-9-9-9-9-9-9-7--7-7--6--6-6--2---
E----------------------------5-5-5-5-5-5--7-7-7-7-7-7-7-7-7-7-7-7-5--5-5--4--4-4--0---







14. The Wolfman Stole My Baby


[Intro]:

E----------------------------------
B----------------------------------
G----------------------------------
D--2---2---0---0-------------------
A-----------------3-3-3---2---2-2--
E---------------------------------- (x3)

E---------------------
B---------------------
G---------------------
D--2---2---0---0------
A-----------------3---
E---------------------


[Chorus]:

E----------------------------------
B----------------------------------
G--2--2-2--5--5-5--4-4--5--5-5-5---
D--2--2-2--5--5-5--4-4--5--5-5-5---
A--0--0-0--3--3-3--2-2--3--3-3-3---
E---------------------------------- (x8)


[Verse]:

E----------------------------------
B----------------------------------
G----------------------------------
D--2---2---0---0-------------------
A-----------------3-3-3---2---2-2--
E---------------------------------- (x3)

E---------------------
B---------------------
G---------------------
D--2---2---0---0------
A-----------------3---


[Chorus]:

E----------------------------------
B----------------------------------
G--2--2-2--5--5-5--4-4--5--5-5-5---
D--2--2-2--5--5-5--4-4--5--5-5-5---
A--0--0-0--3--3-3--2-2--3--3-3-3---
E---------------------------------- (x8)


[Bridge]:

E----------------------------------
B----------------------------------
G----------------------------------
D--9--9-9--7--7-7--5-5-5--4--4-4---
A--9--9-9--7--7-7--5-5-5--4--4-4---
E--7--7-7--5--5-5--3-3-3--2--2-2--- (x4)


[Chorus]:

E----------------------------------
B----------------------------------
G--2--2-2--5--5-5--4-4--5--5-5-5---
D--2--2-2--5--5-5--4-4--5--5-5-5---
A--0--0-0--3--3-3--2-2--3--3-3-3---
E---------------------------------- (x8)








15. Planet of The Apes


[Intro]:

E--------------------------
B--------------------------
G--------------------------
D--5----10-9-7----10---9---
A--5----10-9-7----10---9---
E--3----8--7-5----8----7---


[Verse]:


E-----------------------------------------
B-----------------------------------------
G-----------------------------------------
D--5-5-5-5-5-5-5-5-5---10-9-7----10---9---
A--5-5-5-5-5-5-5-5-5---10-9-7----10---9---
E--3-3-3-3-3-3-3-3-3---8--7-5----8----7---

E-------------------------------------------------------------------------
B-------------------------------------------------------------------------
G-------------------------------------------------------------------------
D--5--5-5-5-5-5-5-5-5-5-5-5-5-5-5--7--7-7-7-7-7-7--10-10-10-10-10-10-10---
A--5--5-5-5-5-5-5-5-5-5-5-5-5-5-5--7--7-7-7-7-7-7--10-10-10-10-10-10-10---
E--3--3-3-3-3-3-3-3-3-3-3-3-3-3-3--5--5-5-5-5-5-5--8--8--8--8--8--8--8----
      . . . . . . . . . . . . . .     . . . . . .     .  .  .  .  .  .

[Pre-Chorus]:

E------------------------------------------
B------------------------------------------
G---------------5-5-5-5-5-5----------------
D--3-3-3-3-3-3--5-5-5-5-5-5--5-5-5-5-5-5---
A--3-3-3-3-3-3--3-3-3-3-3-3--5-5-5-5-5-5---
E--1-1-1-1-1-1---------------3-3-3-3-3-3---

E------------------------------------------------------
B------------------------------------------------------
G---------------5-5-5-5-5-5--7-7-7-7-7-7-7-7-7-7-7-7---
D--3-3-3-3-3-3--5-5-5-5-5-5--7-7-7-7-7-7-7-7-7-7-7-7---
A--3-3-3-3-3-3--3-3-3-3-3-3--5-5-5-5-5-5-5-5-5-5-5-5---
E--1-1-1-1-1-1-----------------------------------------

[Chorus]:

E-----------------------------------------
B-----------------------------------------
G-----------------------------------------
D--5-5-5-5-5-5-5-5-5---10-9-7----10---9---
A--5-5-5-5-5-5-5-5-5---10-9-7----10---9---
E--3-3-3-3-3-3-3-3-3---8--7-5----8----7---

[Verse]:

E-------------------------------------------------------------------------
B-------------------------------------------------------------------------
G-------------------------------------------------------------------------
D--5--5-5-5-5-5-5-5-5-5-5-5-5-5-5--7--7-7-7-7-7-7--10-10-10-10-10-10-10---
A--5--5-5-5-5-5-5-5-5-5-5-5-5-5-5--7--7-7-7-7-7-7--10-10-10-10-10-10-10---
E--3--3-3-3-3-3-3-3-3-3-3-3-3-3-3--5--5-5-5-5-5-5--8--8--8--8--8--8--8----
      . . . . . . . . . . . . . .     . . . . . .     .  .  .  .  .  .

[Pre-Chorus]:

E------------------------------------------
B------------------------------------------
G---------------5-5-5-5-5-5----------------
D--3-3-3-3-3-3--5-5-5-5-5-5--5-5-5-5-5-5---
A--3-3-3-3-3-3--3-3-3-3-3-3--5-5-5-5-5-5---
E--1-1-1-1-1-1---------------3-3-3-3-3-3---

E------------------------------------------------------
B------------------------------------------------------
G---------------5-5-5-5-5-5--7-7-7-7-7-7-7-7-7-7-7-7---
D--3-3-3-3-3-3--5-5-5-5-5-5--7-7-7-7-7-7-7-7-7-7-7-7---
A--3-3-3-3-3-3--3-3-3-3-3-3--5-5-5-5-5-5-5-5-5-5-5-5---
E--1-1-1-1-1-1-----------------------------------------

[Chorus]:

E-----------------------------------------
B-----------------------------------------
G-----------------------------------------
D--5-5-5-5-5-5-5-5-5---10-9-7----10---9---
A--5-5-5-5-5-5-5-5-5---10-9-7----10---9---
E--3-3-3-3-3-3-3-3-3---8--7-5----8----7---

[Bridge]:

E-----------------------------------------
B-----------------------------------------
G-----------------------------------------
D--5-5-5-5-5-5-5-5-5---10-9-7----10---9---
A--5-5-5-5-5-5-5-5-5---10-9-7----10---9---
E--3-3-3-3-3-3-3-3-3---8--7-5----8----7---

E------------------------------------------------------------------------------
B------------------------------------------------------------------------------
G------------------------------------------------------------------------------
D--5-5-5-5-5-5-5-5-5-5-5-5---10-10-9-9-7-7-7-7-7-7-7-7---10-10-10-10-9-9-9-9---
A--5-5-5-5-5-5-5-5-5-5-5-5---10-10-9-9-7-7-7-7-7-7-7-7---10-10-10-10-9-9-9-9---
E--3-3-3-3-3-3-3-3-3-3-3-3---8--8--7-7-5-5-5-5-5-5-5-5---8--8--8--8--7-7-7-7---


E-------------------------------------------------------------------------------
B-------------------------------------------------------------------------------
G-------------------------------------------------------------------------------
D--5-5-5-5-5-5-5-5-5-5-5-5---10-10-9-9-7-7-7-7-7-7-7-7---10-10-10-10-9-9-9-9----
A--5-5-5-5-5-5-5-5-5-5-5-5---10-10-9-9-7-7-7-7-7-7-7-7---10-10-10-10-9-9-9-9----
E--3-3-3-3-3-3-3-3-3-3-3-3---8--8--7-7-5-5-5-5-5-5-5-5---8--8--8--8--7-7-7-7-/--

[Chorus]:


E-----------------------------------------
B-----------------------------------------
G-----------------------------------------
D--5-5-5-5-5-5-5-5-5---10-9-7----10---9---
A--5-5-5-5-5-5-5-5-5---10-9-7----10---9---
E--3-3-3-3-3-3-3-3-3---8--7-5----8----7---







16. The Witch is Dead


[Intro]:

E------------
B------------
G------------
D--5-5-5-2---
A--5-5-5-2---
E--3-3-3-0--- (x4)

[Verse]:

E------------
B------------
G------------
D--5-5-5-2---
A--5-5-5-2---
E--3-3-3-0--- (x13)

[Chorus]:

E------------
B------------
G------------
D--5-5-5-2---
A--5-5-5-2---
E--3-3-3-0--- (x4)


[Verse]:


E------------------------------
B------------------------------
G------------------------------
D--2--2--2--2--5-5-5--4--4-4---
A--2--2--2--2--5-5-5--4--4-4---
E--0--0--0--0--3-3-3--2--2-2--- (x4)

E------------
B------------
G------------
D--5-5-5-2---
A--5-5-5-2---
E--3-3-3-0--- (x8)


[Chorus]:

E------------
B------------
G------------
D--5-5-5-2---
A--5-5-5-2---
E--3-3-3-0--- (x4)

[Bridge]:

E------------------------------
B------------------------------
G------------------------------
D--2--2--2--2--5-5-5--4--4-4---
A--2--2--2--2--5-5-5--4--4-4---
E--0--0--0--0--3-3-3--2--2-2--- (x4)

[Chorus]:

E------------
B------------
G------------
D--5-5-5-2---
A--5-5-5-2---
E--3-3-3-0--- (x4)

[Outro]:

E------------------------------
B------------------------------
G------------------------------
D--2--2--2--2--5-5-5--4--4-4---
A--2--2--2--2--5-5-5--4--4-4---
E--0--0--0--0--3-3-3--2--2-2--- (x4)

E------
B------
G------
D--2---
A--2---
E--0---








17. Death Theme Thirteen





18. Your Mother Sucks Cocks In Hell


[Intro]:

E--------------
B--------------
G--------------
D--7-7-7-9/----
A--7-7-7-9/----
E--5-5-5-7/---- (x4)

E-------
B-------
G-------
D--9/---
A--9/---
E--7/---


[Verse]:

E----------------------------------------------------------------
B----------------------------------------------------------------
G----------------------------------------------------------------
D--9-9-9-9-9-9--9-9-9-9-9-9-9--7/9--9-9-9-9-9-9--9-9-9-9-9-9-9---
A--9-9-9-9-9-9--9-9-9-9-9-9-9--7/9--9-9-9-9-9-9--9-9-9-9-9-9-9---
E--7-7-7-7-7-7--7-7-7-7-7-7-7--5/7--7-7-7-7-7-7--7-7-7-7-7-7-7--- (x2)

E-------
B-------
G-------
D--9/---
A--9/---
E--7/---

E--------------
B--------------
G--------------
D--7-7-7-9/----
A--7-7-7-9/----
E--5-5-5-7/----

E-------
B-------
G-------
D--9/---
A--9/---
E--7/---

E----------------------------------------------------------------
B----------------------------------------------------------------
G----------------------------------------------------------------
D--9-9-9-9-9-9--9-9-9-9-9-9-9--7/9--9-9-9-9-9-9--9-9-9-9-9-9-9---
A--9-9-9-9-9-9--9-9-9-9-9-9-9--7/9--9-9-9-9-9-9--9-9-9-9-9-9-9---
E--7-7-7-7-7-7--7-7-7-7-7-7-7--5/7--7-7-7-7-7-7--7-7-7-7-7-7-7---

[Pre-Chorus]:

E----------------------------------------------------------------
B----------------------------------------------------------------
G--9-8-6--6-6-6-6-6-6--9-9-9-9-9-9-------------------------------
D--9-8-6--6-6-6-6-6-6--9-9-9-9-9-9--7-9--9-9-9-9-9-9-9-9-9-9-9---
A--7-6-4--4-4-4-4-4-4--7-7-7-7-7-7--7-9--9-9-9-9-9-9-9-9-9-9-9---
E-----------------------------------5/7--7-7-7-7-7-7-7-7-7-7-7---


E---------------------------------------------------------------
B---------------------------------------------------------------
G--6-6-6-6-6-6--9-9-9-9-9-9--11-11-11-11-11-11-11-11-11-11-11---
D--6-6-6-6-6-6--9-9-9-9-9-9--11-11-11-11-11-11-11-11-11-11-11---
A--4-4-4-4-4-4--7-7-7-7-7-7--9--9--9--9--9--9--9--9--9--9--9----
E---------------------------------------------------------------


[Chorus]:

E-------------------------------
B-------------------------------
G-------------------------------
D--7/9--9-9-9-9-9-9-9-9-9-9-9---
A--7/9--9-9-9-9-9-9-9-9-9-9-9---
E--5/7--7-7-7-7-7-7-7-7-7-7-7--- (x2)

E------------------------------------------------------
B------------------------------------------------------
G--9-9-9-9-9-9-9-9-9-9-9-------------------------------
D--9-9-9-9-9-9-9-9-9-9-9--7-9--9-9-9-9-9-9-9-9-9-9-9---
A--7-7-7-7-7-7-7-7-7-7-7--7-9--9-9-9-9-9-9-9-9-9-9-9---
E-------------------------5/7--7-7-7-7-7-7-7-7-7-7-7---

E----------------------------------------------------
B----------------------------------------------------
G----------------------------------------------------
D--4-4-4-4-4-4--2-2-2-2-2-2--9-9-9-9-9-9-9-9-9-9-9---
A--4-4-4-4-4-4--2-2-2-2-2-2--9-9-9-9-9-9-9-9-9-9-9---
E--2-2-2-2-2-2--0-0-0-0-0-0--7-7-7-7-7-7-7-7-7-7-7---

[Verse]:

E-----------------------------------------------------------
B-----------------------------------------------------------
G-----------------------------------------------------------
D--7/9--9-9-9-9-9-9-9-9-9-9-9--7/9--9-9-9-9-9-9-9-9-9-9-9---
A--7/9--9-9-9-9-9-9-9-9-9-9-9--7/9--9-9-9-9-9-9-9-9-9-9-9---
E--5/7--7-7-7-7-7-7-7-7-7-7-7--5/7--7-7-7-7-7-7-7-7-7-7-7---

E-----------------------------------------------------------------------
B-----------------------------------------------------------------------
G-----------------------------------------------------------------------
D--9-9-9-9-9-9-9-9-9-9-9-9-9-9-9-9-9-9-9-9-9-9-9-9-9-9-9-9-9-9-9-9-9/---
A--9-9-9-9-9-9-9-9-9-9-9-9-9-9-9-9-9-9-9-9-9-9-9-9-9-9-9-9-9-9-9-9-9/---
E--7-7-7-7-7-7-7-7-7-7-7-7-7-7-7-7-7-7-7-7-7-7-7-7-7-7-7-7-7-7-7-7-7/---

E--------------
B--------------
G--------------
D--7-7-7-9/----
A--7-7-7-9/----
E--5-5-5-7/---- (x4)

E-------
B-------
G-------
D--9/---
A--9/---
E--7/---

E-----------------------------------------------------------
B-----------------------------------------------------------
G-----------------------------------------------------------
D--9-9-9-9-9-9--9-9-9-9-9-9-9--9-9-9-9-9-9--9-9-9-9-9-9-9---
A--9-9-9-9-9-9--9-9-9-9-9-9-9--9-9-9-9-9-9--9-9-9-9-9-9-9---
E--7-7-7-7-7-7--7-7-7-7-7-7-7--7-7-7-7-7-7--7-7-7-7-7-7-7---


[Pre-Chorus]:


E----------------------------------------------------------------
B----------------------------------------------------------------
G--9-8-6--6-6-6-6-6-6--9-9-9-9-9-9-------------------------------
D--9-8-6--6-6-6-6-6-6--9-9-9-9-9-9--7-9--9-9-9-9-9-9-9-9-9-9-9---
A--7-6-4--4-4-4-4-4-4--7-7-7-7-7-7--7-9--9-9-9-9-9-9-9-9-9-9-9---
E-----------------------------------5/7--7-7-7-7-7-7-7-7-7-7-7---


E---------------------------------------------------------------
B---------------------------------------------------------------
G--6-6-6-6-6-6--9-9-9-9-9-9--11-11-11-11-11-11-11-11-11-11-11---
D--6-6-6-6-6-6--9-9-9-9-9-9--11-11-11-11-11-11-11-11-11-11-11---
A--4-4-4-4-4-4--7-7-7-7-7-7--9--9--9--9--9--9--9--9--9--9--9----
E---------------------------------------------------------------

E--------------
B--------------
G--------------
D--7-7-7-9/----
A--7-7-7-9/----
E--5-5-5-7/----


[Chorus]:

E-------------------------------
B-------------------------------
G-------------------------------
D--7/9--9-9-9-9-9-9-9-9-9-9-9---
A--7/9--9-9-9-9-9-9-9-9-9-9-9---
E--5/7--7-7-7-7-7-7-7-7-7-7-7--- (x2)

E------------------------------------------------------
B------------------------------------------------------
G--9-9-9-9-9-9-9-9-9-9-9-------------------------------
D--9-9-9-9-9-9-9-9-9-9-9--7/9--9-9-9-9-9-9-9-9-9-9-9---
A--7-7-7-7-7-7-7-7-7-7-7--7/9--9-9-9-9-9-9-9-9-9-9-9---
E-------------------------5/7--7-7-7-7-7-7-7-7-7-7-7---

E----------------------------------------------------
B----------------------------------------------------
G----------------------------------------------------
D--4-4-4-4-4-4--2-2-2-2-2-2--9-9-9-9-9-9-9-9-9-9-9---
A--4-4-4-4-4-4--2-2-2-2-2-2--9-9-9-9-9-9-9-9-9-9-9---
E--2-2-2-2-2-2--0-0-0-0-0-0--7-7-7-7-7-7-7-7-7-7-7---

[Outro]:

E----------------------------------------------------
B----------------------------------------------------
G----------------------------------------------------
D--4-4-4-4-4-4--2-2-2-2-2-2--9-9-9-9-9-9-9-9-9-9-9---
A--4-4-4-4-4-4--2-2-2-2-2-2--9-9-9-9-9-9-9-9-9-9-9---
E--2-2-2-2-2-2--0-0-0-0-0-0--7-7-7-7-7-7-7-7-7-7-7--- (x2)

E--------------------
B--------------------
G--------------------
D--4-4-4-4-4-4--2/---
A--4-4-4-4-4-4--2/---
E--2-2-2-2-2-2--0/---



************************************

. - Palm Mute
/ - Slide Up
~ - Vibrato
h - Hammer On
b - Bend
x - Dead note

************************************

            
            
Suggest correction
Creating personal tab
Creating personal tab
You can edit any tab online and save it as your Personal.

You can edit, replace or remove any tab part or add personal notes – all changes will be seen only by you.

Personal tabs can be accessed anytime from any device, even offline.
Learn more »
Give kudos to tab author, rate the tab!
1 2 3 4 5
comments
print report bad tab
guest
You may want to rate the tab now too:
select rating
Wanna post a correction for this tab? Suggest correction