Oops, an error
Loading. Please wait.

Cant Stop Feeling bass

version 1
version 1

Whole song

Interactive

9,332 views 12 this week
no commentswrite comment
1 2 3 4 5
x 15
add to favorites
×
Save as Personal and add changes to this tab that will be seen only by you. Learn more ›
×
You can save this tab as Personal to edit and correct it or add notes. All changes will be seen only by you. Learn more »
launch autoscroll
font size
0
reset
guitar tuner
edit
Autoscroll
slow
fast
+/-
esc
set tempo
stop
Author
Difficulty
I looked at the 5* guitar chords for this song, I'm using all the right notes in the 
places, the only thing to catch onto is timing, it's quite complex.
So fuck off and stop rating it 1* when it's genuinly better and you know it.

Intro:
G|-------------------------------------------|
D|------------------------------------3---3--|
A|--------------3---3--5-5--x-x--555----5----|x4
E|5-5--x-x--555---5--------------------------|

Verse:
G|----------------------------------------------------------------------------------------|
D|-----------------------------------3---3---------------2---2---------/14-141414-141414--|
A|----3----------3---3--5-5--x-5-555---5----3-3--x-3-333---3----7-7-7-7-------------------|x2
E|5-5---x-x--555---5----------------------------------------------------------------------|

G|------------------------------------------------------------------------------|
D|-----------------------------------3---3---------------2---2-------------7-9--|
A|----3----------3---3--5-5--x-5-555---5----3-3--x-3-333---3----7-7-xxx-7-7-----|
E|5-5---x-x--555---5------------------------------------------------------------|

G|-------------------------------------------------------------------------------|
D|-----------------------------------3---3---------------2---2-------------------|
A|----3----------3---3--5-5--x-5-555---5----3-3--x-3-333---3----7-7-xxx-777-777--|
E|5-5---x-x--555---5-------------------------------------------------------------|

G|---------------------------------------------------------------------------|
D|---------------------------------------------------------------------------|
A|------------------5-5--x-5-x-5-555--3-3--x-3-x-33-333--7-7--xxx-7-777-777--|
E|5-5--x-5-x-5-555-----------------------------------------------------------|

Instrumental:
G|-----------------------------------------------------------------------------|
D|-----------------------------------3---3---------------2---2------------5----|
A|----3----------3---3--5-5--x-5-555---5----3-3--x-3-333---3----7-7-xxx-7---7--|
E|5-5---x-x--555---5-----------------------------------------------------------|

Verse:
G|-------------------------------------------------------------------------9-9--|
D|-----------------------------------3---3---------------2---2------------------|
A|----3----------3---3--5-5--x-5-555---5----3-3--x-3-333---3----7-7-xxx-7-7-----|
E|5-5---x-x--555---5------------------------------------------------------------|

G|-----------------------------------------------------------------------|
D|-----------------------------------3---3---------------2---2-----------|
A|----3----------3---3--5-5--x-5-555---5----3-3--x-3-333---3----7-7-xxx--|
E|5-5---x-x--555---5-----------------------------------------------------|

G|-----------------------------------------------------------------------------|
D|-----------------------------------3---3---------------2---2-----------------|
A|----3----------3---3--5-5--x-5-555---5----3-3--x-3-333---3----7-7-xxx-7-5----|
E|5-5---x-x--555---5--------------------------------------------------------7--|

G|----------------------------------------------------------------------------------------|
D|-----------------------------------3---3---------------2---2---------/14-141414-141414--|
A|----3----------3---3--5-5--x-5-555---5----3-3--x-3-333---3----7-7-7-7-------------------|
E|5-5---x-x--555---5----------------------------------------------------------------------|

G|---------------------------------------------------------------------------|
D|---------------------------------------------------------------------------|
A|------------------5-5--x-5-x-5-555--3-3--x-3-x-33-333--7-7--xxx-7-777-777--|
E|5-5--x-5-x-5-555-----------------------------------------------------------|

instrumental:
G|-------------------------------------------|
D|------------------------------------3---3--|
A|--------------3---3--5-5--x-x--555----5----|x2
E|5-5--x-x--555---5--------------------------|

Bridge:
G|------------------------------------------------------------------------|
D|------------------------------------------------------------------------|
A|-----------------8-8-xxx-8-8-8888\--------------------7-7-x-7-7-77-777--|
E|5-5-xxx-5-5-555---------------------3-3--x--3-3-x333--------------------|

G|----------------------------------------------------------------------|
D|----------------------------------------------------------------------|
A|8-8-x-x-8-888-888--5-5--x--5-555-555--7-7--xx-7-7--xx-7-7--xx-7-7--x--|
E|----------------------------------------------------------------------|

*Rest*

Outro:
G|-----------------------------------------------------------------------------------------|
D|---------------------75------75---8h10-10-131210-8h10-10-131210--14-14-1414141414141414--|
A|----75------75---5-5---7-5-5---7---------------------------------------------------------|
E|5-5---7-5-5---7--------------------------------------------------------------------------|
Repeat until end
finish on an A (E|-5-)

            
            
Suggest correction
Creating personal tab
Creating personal tab
You can edit any tab online and save it as your Personal.

You can edit, replace or remove any tab part or add personal notes – all changes will be seen only by you.

Personal tabs can be accessed anytime from any device, even offline.
Learn more »
comments
print report bad tab
guest
You may want to rate the tab now too:
select rating
Wanna post a correction for this tab? Suggest correction