Oops, an error
Loading. Please wait.

Cant Stop Feeling tab

version 1
version 1

Whole song

Interactive

5,720 views 12 this week
1 commentread comment
1 2 3 4 5
2 more votes to show rating
add to favorites
×
Save as Personal and add changes to this tab that will be seen only by you. Learn more ›
×
You can save this tab as Personal to edit and correct it or add notes. All changes will be seen only by you. Learn more »
launch autoscroll
font size
0
reset
how to read this tab
guitar tuner
edit
Autoscroll
slow
fast
+/-
esc
set tempo
stop
Cant Stop Feeling


MAIN RIFF

e|---------------------------------------------------------------------------|
B|---------------------------------------------------------------------------|
G|---------------------------------------------------------------------------|
D|---------------------------------------------------------------------------|
A|---7-7-7-7-7-5-3-2-3--------7-7-7-7-7-5-3-2-3-----7-7-7-7-7-7-5-3-2-3------|
E|-5------------------------5---------------------5--------------------------|

e|---------------------------------------------------------------------------|
B|---------------------------------------------------------------------------|
G|---------------------------------------------------------------------------|
D|---------------------------------------------------------------------------|
A|---7-7-7-7---7-------------------------------------------------------------|
E|-5--------------7-7-7-7----------------------------------------------------|


VERSE

Am                        Dm      C                      E
the salt starts stinging again, i cant stop feeling no i wont stop feeling
funs not fun            anymore i cant stop feeling no i wont stop feeling
Am           Dm             C            E
you leave me here on my own you leave me here on the floor

Am              Dm               C                E
you cant feel it you cant feel it you cant feel it you cant feel anymore
feel anymore    feel anymore     feel anymore

MAIN RIFF

VERSE

MAIN RIFF

INTERLUDE

Am           F                        G               E
So boy youre down and alone and youre soul is broken again

        F                       D                 E              
But you cant stop moving no you wont stop moving along


MAIN RIFF

OUTRO

Am               C                Dm               E   
you cant feel it you cant feel it you cant feel it you cant feel anymore

Am

            
            
Suggest correction
Creating personal tab
Creating personal tab
You can edit any tab online and save it as your Personal.

You can edit, replace or remove any tab part or add personal notes – all changes will be seen only by you.

Personal tabs can be accessed anytime from any device, even offline.
Learn more »
Give kudos to tab author, rate the tab!
1 2 3 4 5
comments
print report bad tab
1 comment total.
0 reply
yaidin 306 Feb 04, 2017 04:06 PM

Nice tabs, but the riff should end with D|-5-5-5-5-7-| Instead of
A|-7---------|
E|---7-7-7-7-|

guest
You may want to rate the tab now too:
select rating
Wanna post a correction for this tab? Suggest correction