Oops, an error
Loading. Please wait.

Cheating On You bass

version 2
version 2

Whole song

Interactive

1,168 views 3 this week
no commentswrite comment
1 2 3 4 5
3 more votes to show rating
add to favorites
×
Save as Personal and add changes to this tab that will be seen only by you. Learn more ›
×
You can save this tab as Personal to edit and correct it or add notes. All changes will be seen only by you. Learn more »
launch autoscroll
font size
0
reset
guitar tuner
edit
Autoscroll
slow
fast
+/-
esc
set tempo
stop
Author
Franz Ferdinand - Cheating on You
=================================

off the self titled album...


tabbed by the bass playing sheep (sheep611@gmail.com)

I haven't put the order in, 'cause theres only like 3 riffs.
Not hard to hear what to play and when...

standard tuning...


intro/verse:
------------


G|-----------------|-------------------|
D|-0-0-0-0-0-0-0-0/|-5-5-5-5-5-5-5-5-5\|
A|-----------------|-------------------|
E|-----------------|-------------------|


chorus:
-------
                                x4   
G|-------------------------------|
D|-3-3---3-3-3/--5-5---5-5----/--|
A|-------------------------------|
E|-------------------------------|

G|-----------------|-----------------|
D|-5---5---5---5---|-5-5-5-5-5-5-5-5-|
A|-----------------|-----------------|
E|-----------------|-----------------|


bridge: (drag the last bit of the chorus out a bit before this)
-------

                                 x4
G|-2---2---2---2-4/6-4/2-4--4-4-4-|
D|---4---4---4--------------------|
A|--------------------------------|
E|--------------------------------|

thats it, enjoy!


lyrics:
-------

Goodbye girl, because I'm lonely,
Goodbye girl, it isn't over,
Goodbye girl, because it's only love...
 
Goodbye girl, you know you want me,
Goodbye girl, yes I'm a loser,
Goodbye girl, you know its only love...
 

I'm cheating on you, yeah
I'm cheating on you, yeah
I'm cheating on you, yeah
You're cheating on me...


Goodbye girl, you are are the only one,
Goodbye girl, I know you want me,
Goodbye girl, you are the only love, yeah...
 
Goodbye girl, now if you're lonely,
Goodbye girl, why dont you join me?
Goodbye girl, you know its only love...
 
I'm cheating on you, yeah
I'm cheating on you, yeah
I'm cheating on you, yeah
I'm cheating on me...

Watch out,
Watch out,
Cheating on you...

Goodbye girl,
Goodbye girl,
Goodbye girl,
Goodbye girl...


            
            
Suggest correction
Creating personal tab
Creating personal tab
You can edit any tab online and save it as your Personal.

You can edit, replace or remove any tab part or add personal notes – all changes will be seen only by you.

Personal tabs can be accessed anytime from any device, even offline.
Learn more »
Give kudos to tab author, rate the tab!
1 2 3 4 5
comments
print report bad tab
guest
You may want to rate the tab now too:
select rating
Wanna post a correction for this tab? Suggest correction