Oops, an error
Loading. Please wait.

Love Illumination tab

version 1
version 1

Whole song

Interactive

35,679 views 57 this week
2 commentsread comments
1 2 3 4 5
x 13
add to favorites
×
Save as Personal and add changes to this tab that will be seen only by you. Learn more ›
×
You can save this tab as Personal to edit and correct it or add notes. All changes will be seen only by you. Learn more »
launch autoscroll
font size
0
reset
how to read this tab
guitar tuner
edit
Autoscroll
slow
fast
+/-
esc
set tempo
stop
Author
Difficulty
Artist: Franz Ferdinand
Song: Love Illumination
Album: Right Thoughts, Right Words, Right Action


Guitar 1

e|-------------------------------------------|
B|-------------------------------------------|
G|--------------------7--5-------------------|
D|---------------------------5---7-----------|
A|-------------------------------------------|
E|---0-3-5-6-7-0-----------------------------| x2

e|-------------------------------------------|
B|-------------------------------------------|
G|--------------------7--5-------------------|
D|---------------------------5---7-----------|
A|-------------------------------------------|
E|---0-3-5-6-7-8-----------------------------|

e|-------------------------------------------|
B|-------------------------------------------|
G|--------------------7--5-------------------|
D|---------------------------5---7-----------|
A|-------------------------------------------|
E|---0-8-7-6-3-5-----------------------------|

e|-------------------------------------------|
B|-------------------------------------------|
G|--------------------7--5-------------------|
D|---------------------------5---7-----------|
A|-----3-5-6-7-------------------------------|
E|---0---------0-----------------------------|

e|-------------------------------------------|
B|-------------------------------------------|
G|--------------------7--5-------------------|
D|---------------------------5---7-----------|
A|-------------------------------------------|
E|---0-3-5-6-7-0-----------------------------|

Guitar 2

e|---------------------------------------|
B|------------------10--8----------------|
G|--------------------------7--9---------|
D|--------7-8-9--------------------------|
A|---7-10-------7------------------------|
E|---------------------------------------| x2

e|---------------------------------------|
B|-------------------10--8---------------|
G|---------------------------7--9--------|
D|--------7-8-9-10-----------------------|
A|---7-10--------------------------------|
E|---------------------------------------|

e|---------------------------------------|
B|------------------10--8----------------|
G|--------------------------7--9---------|
D|-----10-9-8----7-----------------------|
A|---7--------10-------------------------|
E|---------------------------------------|

e|---------------------------------------|
B|------------------10--8----------------|
G|--------7-8-9-------------7--9---------|
D|-----10--------------------------------|
A|---7-----------------------------------|
E|---------------------------------------|

e|---------------------------------------|
B|------------------10--8----------------|
G|--------------------------7--9---------|
D|--------7-8-9--------------------------|
A|---7-10-------7------------------------|
E|---------------------------------------|

[Verse]
When you're halfway from a dream
Is it hard to work out what's real
e|------------------------|
B|------------------------|
G|------------------------|
D|------------------------|
A|------------------------|
E|-3-5-3-0--0-------------|
Is the real over there
More vivid than here ever feels
e|------------------------|
B|------------------------|
G|------------------------|
D|------------------------|
A|------------------------|
E|-3-5-3-0--0-------------|

[Pre-Chorus]
Guitar 1:
e|-------------------------|
B|-------------------------|
G|-------------------------|
D|-------------------------|
A|-------------------------|
E|-0-3-5-6-7-8-------------|

Guitar 2:
e|-------------------------|
B|-------------------------|
G|-------------------------|
D|------7-8-9-10-----------|
A|-7-10--------------------|
E|-------------------------|

We could love, we could love you
Guitar 1:
e|-------------------------|
B|-------------------------|
G|-------------------------|
D|-------------------------|
A|-------------------------|
E|-8-7-6-3-5---------------|

Guitar 2:
e|-------------------------|
B|-------------------------|
G|-------------------------|
D|---10-9-8----7-----------|
A|-7--------10-------------|
E|-------------------------|

If you need somebody to love you

Guitar 1:
e|-------------------------|
B|-------------------------|
G|-------------------------|
D|-------------------------|
A|---3-5-6-7---------------|
E|-0-----------------------|

Guitar 2:
e|-------------------------|
B|-------------------------|
G|------7-8-9--------------|
D|---10--------------------|
A|-7-----------------------|
E|-------------------------|

While you're looking for somebody to love

Guitar 1:
e|-------------------------|
B|-10--8-------------------|
G|--------7--9-------------|
D|-------------------------|
A|-------------------------|
E|-------------------------|

Guitar 2:
e|-------------------------|
B|-------------------------|
G|-------------------------|
D|-7--5--------------------|
A|-------5--7--------------|
E|-------------------------|

Guitar 2:
e|-------------------------|
B|-------------------------|
G|-------------------------|
D|----7--5-----------------|
A|----------7--5--7--------|
E|-------------------------|


Chords:
   E  B  C   G  D  D#
e|-----------------------|
B|-----------------------|
G|-----------------------|
D|-9-------------7--8----|
A|-7--9---10--5--5--6----|
E|----7---8---3----------|
[Chorus]
E                       B
Sweet love illumination 
C
Sweet, sweet love elevation 
G
Outside, fresh other side 
D                                D#
But inside our love, you will be alright 
E                       B
Sweet love illumination 
C
Sweet, sweet love celebration 
G
Cop car burn, reason term
D               
But it'll bring you up 
E                 
You'll be alright


Synth break, chords are:

E - C - G - D

Guitar 1:
e|-------------------------------------|
B|-------------------------------------|
G|-------------------------------------|
D|-7--5--------------------------------|
A|-------5--7--------------------------|
E|-----------------0-3-5-6-7-0---------| x2

Guitar 2
e|-------------------------------------|
B|-10--8-------------------------------|
G|--------7--9-------------------------|
D|----------------------7-8-9----------|
A|-----------------7-10-------7--------|
E|-------------------------------------| x2

2nd verse:
Is the Blackpool bright light
Brighter than the light in your home

Were you born to be loved
But nobody else seems to know
e|------------------------|
B|------------------------|
G|------------------------|
D|------------------------|
A|------------------------|
E|-3-5-3-0--0-------------|

[Pre-Chorus]
Guitar 1:
e|-------------------------|
B|-------------------------|
G|-------------------------|
D|-------------------------|
A|-------------------------|
E|-----------8-------------|

Guitar 2:
e|-------------------------|
B|-------------------------|
G|-------------------------|
D|------------10-----------|
A|-------------------------|
E|-------------------------|

We could love, we could love you
Guitar 1:
e|-------------------------|
B|-------------------------|
G|-------------------------|
D|-------------------------|
A|-------------------------|
E|-8-7-6-3-5---------------|

Guitar 2:
e|-------------------------|
B|-------------------------|
G|-------------------------|
D|---10-9-8----7-----------|
A|-7--------10-------------|
E|-------------------------|

If you need somebody to love you

Guitar 1:
e|-------------------------|
B|-------------------------|
G|-------------------------|
D|-------------------------|
A|---3-5-6-7---------------|
E|-0-----------------------|

Guitar 2:
e|-------------------------|
B|-------------------------|
G|------7-8-9--------------|
D|---10--------------------|
A|-7-----------------------|
E|-------------------------|

While you're looking for somebody to love

Guitar 1:
e|-------------------------|
B|-10--8-------------------|
G|--------7--9-------------|
D|-------------------------|
A|-------------------------|
E|-------------------------|

Guitar 2:
e|-------------------------|
B|-------------------------|
G|-------------------------|
D|-7--5--------------------|
A|-------5--7--------------|
E|-------------------------|

Guitar 2:
e|-------------------------|
B|-------------------------|
G|-------------------------|
D|----7--5-----------------|
A|----------7--5--7--------|
E|-------------------------|

[Chorus]
E                       B
Sweet love illumination 
C
Sweet, sweet love elevation 
G
Outside, fresh other side 
D                                D#
But inside our love, you will be alright 
E                       B
Sweet love illumination 
C
Sweet, sweet love celebration 
G
Cop car burn, reason term
D               
But it'll bring you up 
D                 
You'll be alright

[Solo]
e|----------------------------------|
B|----------------------------------|
G|-7-9-7--------7-9-------7-9-------|
D|----------------------------------|
A|--------7-x-x------7-x-x----7-x-x-|
E|----------------------------------| x2

e|---------------------------------------------------------------|
B|----------------------------7-------7-----------------------7--|
G|-7-9-7--------7-9-------7-9-----7-9---------7-9-7-------7-9----|
D|--------9---------9--------------------9-----------9-----------|
A|---------------------------------------------------------------|
E|---------------------------------------------------------------|

e|---------------------------------------------------------------------|
B|-7-8-7-------7-8-7---------7-8------8-7-8-7--------7-8-----7-8-7-----|
G|-------9-x-x--------9-x-x-------9------------9-x-x------9--------9---|
D|---------------------------------------------------------------------|
A|---------------------------------------------------------------------|
E|---------------------------------------------------------------------|

e|--------------------------------------------------------|
B|-10-8-7-7--10-8-7---7-8-10--7-8-10-x-x--7-8-7-x-x-7-8-7-|
G|--------------------------------------------------------|
D|--------------------------------------------------------|
A|--------------------------------------------------------|
E|--------------------------------------------------------|

[Bridge]
C
We could love, we could love you
A
If you need somebody to love you
E
While you're looking for somebody to love
E
We're all looking for somebody
E
We're all looking for somebody to love


Final Chorus
E                       B
Sweet love illumination 
C
Sweet, sweet love elevation 
G
Outside, fresh other side 
D                                D#
But inside our love, you will be alright 
E                       B
Sweet love illumination 
C
Sweet, sweet love celebration 
G
Cop car burn, reason term
D               
But it'll bring you up 
B                
You'll be alright

End on:

C
Sweet love
D
Sweet, sweet love
E
Sweet, sweet love
E
Sweet, sweet love
E
Sweet, sweet love
E
Sweet love



************************************

| x  Dead note

************************************

            
            
Suggest correction
Creating personal tab
Creating personal tab
You can edit any tab online and save it as your Personal.

You can edit, replace or remove any tab part or add personal notes – all changes will be seen only by you.

Personal tabs can be accessed anytime from any device, even offline.
Learn more »
comments
print report bad tab
2 comments total.
+3 reply
McCandlessJohnJ 10 Oct 31, 2013 06:56 AM

'B#' doesn't exist, the chord you've denoted is actually B5 (they're all power chords)

0 reply
jackman970831 12 Jun 01, 2016 10:26 AM

didn't like this contribution

guest
You may want to rate the tab now too:
select rating
Wanna post a correction for this tab? Suggest correction