Oops, an error
Loading. Please wait.

No You Girls bass

version 1
version 1

Whole song

Interactive

50,083 views 45 this week
2 commentsread comments
1 2 3 4 5
x 10
add to favorites
×
Save as Personal and add changes to this tab that will be seen only by you. Learn more ›
×
You can save this tab as Personal to edit and correct it or add notes. All changes will be seen only by you. Learn more »
launch autoscroll
font size
0
reset
guitar tuner
edit
Autoscroll
slow
fast
+/-
esc
set tempo
stop
Author
Unregistered
This song is from Franz Ferdinand's third album "Tonight: Franz Ferdinand". Also, 
this be my first tab.

[Intro]

G|----------------------|
D|--5-5-5-5-5-5-5-5-----|
A|----------------------|
E|----------------------|(x2)

G|--------------------------3--3h5-3--|
D|--5-5-5-5-5-5-5-5p3---3-5-----------|
A|--------------------5---------------|
E|------------------------------------|

[Verse 1]

G|-------------3-3-5-3--|
D|--5-5---3h5-----------|
A|-----55---------------|
E|----------------------|(x4)

G|----------0-0-2---------------0-2--|
D|--2-2---2---------2-2---2-012------|
A|-----------------------------------|
E|-----------------------------------|

G|-------------3-3-5-3--|
D|--5-5---3h5-----------|
A|-----55---------------|
E|----------------------|(x4)

G|----------0-0-2---------------0-2--|
D|--2-2---2---------2-2---2-012------|
A|-----------------------------------|
E|-----------------------------------|

G|--5-5---3h5--3-5---3h5-7/--|
D|-----55---------55---------|
A|---------------------------|
E|---------------------------|

[Pre-Chorus]

G|----------------3-5-5-5-5-5-5-5-3---------------3-5-5-5-5-5-5-5-5--|
D|--5-5-5-5-5-5-5-------------------5-5-5-5-5-5-5--------------------|
A|-------------------------------------------------------------------|
E|-------------------------------------------------------------------|

[Chorus]

G|--------------3------------5-3---------------3----5-5-5-5-3-3-3------|
D|--5-5-5p3---5------5-5p3---------5-5-5p3---5--------------------5p3--|
A|---------5--------------5---------------5----------------------------|
E|---------------------------------------------------------------------|

G|--------------3------------5-3---------------3----5-5----3-3--|
D|--5-5-5p3---5------5-5p3---------5-5-5p3---5------------------|
A|---------5--------------5---------------5---------------------|
E|--------------------------------------------------------------|
                                 
[Pre-Verse Drum Madness]

G|-----------------3----5-5--|     G|---------------3-3-5-3--|
D|--3h5-5-5p3----5-----------|     D|---5-5---3h5------------|
A|-----------5---------------|     A|-------55---------------|
E|---------------------------|     E|------------------------|(x4)

[Verse 2]

G|-------------3-3-5-3--|
D|--5-5---3h5-----------|
A|-----55---------------|
E|----------------------|(x4)

G|----------0-0-2---------------0-2--|
D|--2-2---2---------2-2---2-012------|
A|-----------------------------------|
E|-----------------------------------|

G|-------------3-3-5-3--|
D|--5-5---3h5-----------|
A|-----55---------------|
E|----------------------|(x4)

G|----------0-0-2---------------0-2--|
D|--2-2---2---------2-2---2-012------|
A|-----------------------------------|
E|-----------------------------------|

G|--5-5---3h5--3-5---3h5-7/--|
D|-----55---------55---------|
A|---------------------------|
E|---------------------------|

[Pre-Chorus]

G|---------------3-5-5-5-5-5-5-5-3-------------3-5-5-5-5-5-5-5-5--|
D|--5-5-5-5-5-5-5-----------------5-5-5-5-5-5-5-------------------|
A|----------------------------------------------------------------|
E|----------------------------------------------------------------|

[Chorus]
G|--------------3------------5-3---------------3----5-5-5--3-3-3--|
D|--5-5-5p3---5------5-5p3---------5-5-5p3---5--------------------|
A|---------5--------------5---------------5-----------------------|
E|----------------------------------------------------------------|(x2)

G|--------------3----5-5-5--3-3-3---------------3----5-5----3-3--| 
D|--5-5-5p3---5---------------------5-5-5p3---5------------------|
A|---------5-------------------------------5---------------------|
E|---------------------------------------------------------------|

[Bridge]
[there's some syncopated rhythm here]

G|------------------------------------4--24---4--24---4--24---4--24---|
D|----2--02---2--02---2--02---2--02-----------------------------------|
A|--------------------------------------------------------------------|
E|--------------------------------------------------------------------|

G|---5--35---5--35---5--35---5--35---|
D|-----------------------------------|
A|-----------------------------------|
E|-----------------------------------|

[Pre-Chorus]

G|---------------3-4-5-5-5-5-5-5-5-4-------------3-4-5-5-5-5-5-5-5-3-|
D|---5-5-5-5-5-5---------------------5-5-5-5-5-5---------------------|
A|-------------------------------------------------------------------|
E|-------------------------------------------------------------------|(x2)

G|---------------|
D|--5------5--5--|
A|---------------|
E|---------------|

[Chorus]

G|--------------3------------5-3---------------3----5-5-5--3-3-3--|
D|--5-5-5p3---5------5-5p3---------5-5-5p3---5--------------------|
A|---------5--------------5---------------5-----------------------|
E|----------------------------------------------------------------|(x2)

G|--------------3----5-5-5--3-3-3---------------3----5-5-5--3-3-3--|  
D|--5-5-5p3---5---------------------5-5-5p3---5--------------------|
A|---------5-------------------------------5-----------------------|
E|-----------------------------------------------------------------|

[Outro]

G|----------------------|      G|-------|  
D|--5-5-5-5-5-5-5-5-----|(x3)  D|--5----|
A|----------------------|      A|-------|
E|----------------------|      E|-------|



************************************

| h  Hammer-on
| p  Pull-off
| /  Slide up

************************************

            
            
Suggest correction
Creating personal tab
Creating personal tab
You can edit any tab online and save it as your Personal.

You can edit, replace or remove any tab part or add personal notes – all changes will be seen only by you.

Personal tabs can be accessed anytime from any device, even offline.
Learn more »
comments
print report bad tab
2 comments total.
0 reply
Chris_Parker 277 Mar 10, 2009 05:37 PM

There's a video of them playing this live at Glastonbury on YouTube somewhere, and it looks like he plays that up around the tenth fret.

Great job, though!

0 reply
HAFTX 105 Jan 20, 2016 05:41 AM

I think it's played around the 5th fret like in the tab. I believe there is an extra pulloff in the chorus

Chorus:
|--------------3------------5-3---------------3----5-5-5-5-3-3-3------|
|5-5-5p3p0---5----5-5p3p0-------5-5-5p3p0---5--------------------5p3-/|
|---------5--------------5---------------5----------------------------|
|---------------------------------------------------------------------|

guest
Wanna post a correction for this tab? Suggest correction