Oops, an error
Loading. Please wait.

No You Girls tab

version 1
version 1

Whole song

Interactive

58,600 views 12 this week
3 commentsread comments
1 2 3 4 5
x 7
add to favorites
×
Save as Personal and add changes to this tab that will be seen only by you. Learn more ›
×
You can save this tab as Personal to edit and correct it or add notes. All changes will be seen only by you. Learn more »
launch autoscroll
font size
0
reset
how to read this tab
guitar tuner
edit
Autoscroll
slow
fast
+/-
esc
set tempo
stop
No you girls never know how you make a boy feel



INTRO

e|---------------------------------------------------------------------------|
B|---------------------------------------------------------------------------|
G|-12-11-12-11-10-11-10-8-10-------------------------------------------------|
D|---------------------------------------------------------------------------|
A|---------------------------------------------------------------------------|
E|---------------------------------------------------------------------------|


VERSE

Gm                                                                  Em
Kiss me flick your cigarette then kiss me kiss me where your eye wont meet me
                             Gm
meet me where your mind wont kiss me flick your eyes at mine then hit me
                         Em 
hit me with your eyes so sweetly you know you know you know that
C                  D N.C
Yes i love i mean id love to get to know you

Gm  C            Gm      C
     Do you ever wonder? no no

CHORUS

Gm                                C
No you girls never know oh no you girls'll never know

Gm                             C       A#             Gm
no you girls you'll never know how you make a boy feel

C       A#
How you make a boy



e|-----------------|
B|-----------------|
G|-2-3-------------|   x4
D|-----5--3-5-5----|
A|-----------------|
E|-----------------|

VERSE

CHORUS

INTERLUDE

Em                       F#m  B
Sometimes i say a stupid thing well i think, well i mean i

C                       Gm
Some times think stupid things

Gm  C                Gm    C             Gm 
    Because i never wonder how the girl feels how the girl feels

CHORUS (different lyrics)

Oh you boys'll never care, you dirty boys'll nevr care
Oh you boys'll never care how the girls feels

End with INTRO

            
            
Suggest correction
Creating personal tab
Creating personal tab
You can edit any tab online and save it as your Personal.

You can edit, replace or remove any tab part or add personal notes – all changes will be seen only by you.

Personal tabs can be accessed anytime from any device, even offline.
Learn more »
comments
print report bad tab
3 comments total.
0 reply
Pelusteriano 5,295 Aug 22, 2013 05:55 PM

This is a very poor tab, there are two guitars playing the whole song. Chords are ok, but we want lead guitar arrengements in a "tab" version

0 reply
GhostInADitch 344 Aug 25, 2013 08:41 AM

The main riff that's played throughout the verse is shown after the first chorus.

0 reply
Pelusteriano 5,295 Aug 25, 2013 08:28 PM

Let me show why I think your version is very poor:

intro riff

G|-12h10-12---10h9-10---9h7-9-(9)\\\\-|

verse riff

G|-2h3p2----------|-2h3p2---2-3------|
D|-------5X3--5-5-|-------5------2-2-|

verse final riff

e|-3-3-3-3-3-3-3-3-3-5\\-|
B|-5-5-5-5-5-5-5-5-5-7\\-|
G|-3-3-3-3-3-3-3-3-3-5\\-|

pre-chorus riff

G|-3v-2v-0v-|

chorus riff

D|-3-2-0-----|
A|-------3-1-|

also, the rhythmic guitar parts and all the interlude arrengements...

Keep it on!

guest
You may want to rate the tab now too:
select rating
Wanna post a correction for this tab? Suggest correction