Oops, an error
Loading. Please wait.

Right Action tab

version 1
version 1

Whole song

17,479 views 12 this week
8 commentsread comments
1 2 3 4 5
x 14
add to favorites
×
Save as Personal and add changes to this tab that will be seen only by you. Learn more ›
×
You can save this tab as Personal to edit and correct it or add notes. All changes will be seen only by you. Learn more »
launch autoscroll
font size
0
reset
how to read this tab
guitar tuner
edit
Autoscroll
slow
fast
+/-
esc
set tempo
stop
Difficulty
intermediate
main guitar riff:

|----------------|
|----------------|
|----------------|
|------------4\--|
|--3-5-3-5-5-----|
|----------------|


second guitar:

|--5--5-5-x-5--x-3-3--|
|--7--7-7-x-7--x-3-3--|
|--7--7-7-x-7--x-4-4--|
|---------------------|
|---------------------|
|---------------------|


chords on the other parts:

D       G               F     G
  Right Thoughts! Right Words!  Right Action!

B         D      F#       A     B       D       F#   A
  But how can we leave you  to saturday night or sunday morning


part from 2:00 to 2:20

|--5--5-5-x-5--x-3-3--5--5-5-x-5--x-3-3--5--5-5-x-5--x-3-3-x-1-1-1-x-3-3-3--|
|--7--7-7-x-7--x-3-3--7--7-7-x-7--x-3-3--7--7-7-x-7--x-3-3-x-1-1-1-x-3-3-3--|
|--7--7-7-x-7--x-4-4--7--7-7-x-7--x-4-4--7--7-7-x-7--x-4-4-x-2-2-2-x-4-4-4--|
|---------------------------------------------------------------------------|
|---------------------------------------------------------------------------|
|---------------------------------------------------------------------------|

and then A and G, like:

A   G         A      G
  Eleven South Court Gardens
A       G        A        G
England’s Lane past end to London


sorry if i couldn't describe it well but i'm not english and some of the vocabulary i 
needed to use was too difficult to find :) great song anyway, i love Franz Ferdinand! hope 
this tab will be useful for you!

            
            
Suggest correction
Creating personal tab
Creating personal tab
You can edit any tab online and save it as your Personal.

You can edit, replace or remove any tab part or add personal notes – all changes will be seen only by you.

Personal tabs can be accessed anytime from any device, even offline.
Learn more »
comments
print report bad tab
8 comments total. Showing first comments.
0 reply
indieindie 31 Aug 23, 2013 03:16 AM

second guitar sounds bad ;s

+3 reply
robbiidegroot 41 Oct 11, 2013 05:58 AM

There is a cool riff starting at 1:04 which goes like this:

|---------------------------------------------|
|--6-5---6-5-----6-5---6-5--------------------|
|------7-----7-------7-----7-7--7-10-12-10-7--|
|---------------------------------------------|
|---------------------------------------------|
|---------------------------------------------|

-1 reply
Revlin 575 Dec 02, 2013 06:29 PM

I think the main riff is more along the lines of:

e|---------------------|
B|---------------------|
G|-----------------7~--|
D|---------------------|
A|---------------------|
E|---8-h10-p8-h10------|

But not a bad effort!

guest
Wanna post a correction for this tab? Suggest correction