Oops, an error
Loading. Please wait.

Ulysses bass

version 1
version 1

Whole song

Interactive

21,523 views 9 this week
1 commentread comment
1 2 3 4 5
x 7
add to favorites
×
Save as Personal and add changes to this tab that will be seen only by you. Learn more ›
×
You can save this tab as Personal to edit and correct it or add notes. All changes will be seen only by you. Learn more »
launch autoscroll
font size
0
reset
guitar tuner
edit
Autoscroll
slow
fast
+/-
esc
set tempo
stop
Author
-------------------------------------------------------------------------------
			     Ulysses - Franz Ferdinand
-------------------------------------------------------------------------------

Tabbed By : Jeff Becker
e-mail:

Tuning: Standard

Intro x5 - Played on Offbeat, listen carefully
G|------2-2-2-2-2-2-2-2------------------------------------------------------|
D|-------------------------3-3-3-3-3-3-3-3-----------------------------------|
A|---------------------------------------------------------------------------|
E|---------------------------------------------------------------------------|

Transition

G|---7---------7----------9----------10-------14-----------------------------|
D|---------------------------------------------------------------------------|
A|-----5-5-5-5---5-5-5-5----7-7-7-7-----8--8-----12-12-12--------------------|
E|---------------------------------------------------------------------------|

Chorus x2

G|------------5h7----------5h7----------3h5----------------------------------|
D|---------------------------------------------------------------------------|
A|----5-5-5-5------5-5-5-5------3-3-3-3-----3-3-3/15-15-15-15----------------|
E|---------------------------------------------------------------------------|

Transition

G|---------------------------------------------------------------------------|
D|------------5h7---------5h7---------2h3---------2h3------------------------|
A|----5-5-5-5-----5-5-5-5-----1-1-1-1-----1-1-1-1----------------------------|
E|---------------------------------------------------------------------------|

Verse (played on offbeat)

G|--------------------------------------------------------------------------------|
D|--------------------------------------------------------------------------------|
A|-5-5-5-5-5-5-5-5--1-1-1-1-1-1-1-1--5-5-5-5-5-5-5-5--1-1-1-1--00000000-12-12-12--|
E|--------------------------------------------------------------------------------|

Chorus x2

G|------------5h7----------5h7----------3h5----------------------------------|
D|---------------------------------------------------------------------------|
A|----5-5-5-5------5-5-5-5------3-3-3-3-----3-3-3/15-15-15-15----------------|
E|---------------------------------------------------------------------------|

Rest


Outro x4

G|---------------------------------------------------------------------------|
D|---------------------------------------------------------------------------|
A|-----5-5-5-5-5-5-2-3-------------------------------------------------------|
E|---------------------------------------------------------------------------|

Ending

G|-----5h7----5h7------------------------------------------------------------|
D|---------------------------------------------------------------------------|
A|---5------5------5-5(r)----------------------------------------------------|
E|---------------------------------------------------------------------------|

| /  slide up
| \  slide down
| h  hammer-on
| p  pull-off
| ~  vibrato
| +  harmonic
| x  Mute note
===============================================================================

            
            
Suggest correction
Creating personal tab
Creating personal tab
You can edit any tab online and save it as your Personal.

You can edit, replace or remove any tab part or add personal notes – all changes will be seen only by you.

Personal tabs can be accessed anytime from any device, even offline.
Learn more »
comments
print report bad tab
1 comment total.
0 reply
jordanrossen 10 Oct 12, 2017 01:11 PM

Bad tab

guest
You may want to rate the tab now too:
select rating
Wanna post a correction for this tab? Suggest correction