Oops, an error
Loading. Please wait.

What She Came For bass

version 1
version 1

Whole song

Interactive

9,228 views 6 this week
3 commentsread comments
1 2 3 4 5
x 6
add to favorites
×
Save as Personal and add changes to this tab that will be seen only by you. Learn more ›
×
You can save this tab as Personal to edit and correct it or add notes. All changes will be seen only by you. Learn more »
launch autoscroll
font size
0
reset
guitar tuner
edit
Autoscroll
slow
fast
+/-
esc
set tempo
stop
Author
What She Came For
The double // and \\ here is me trying to show that the slide is prolonged… it’s not as 
as some slides. I think it’s pretty much perfect! 
Verse
G|--------------------------------------------------------------------------------|
D|---------------------------------------3h4h5-5-5-5-5-5-5-5-7p6p5-5-5-5-5-5-5-5--|
A|-3h4h5-5-5-5-5-5-5-5p4p3-3-3-3-3-3-3-3------------------------------------------|
E|--------------------------------------------------------------------------------| 

G|--------------------------------------------------------------------------------|
D|---------------------------------------3h4h5-5-5-5-5-5-5-5-7p6p5-5-5-5----------|
A|-3h4h5-5-5-5-5-5-5-5p4p3-3-3-3-3-3-3-3----------------------------------7-5-7---|
E|--------------------------------------------------------------------------------| 

G|--------------------------------------------------------------------------------|
D|---------------------------------------3h4h5-5-5-5-5-5-5-5-7p6p5-5-5-5-5-5-5-5--|
A|-3h4h5-5-5-5-5-5-5-5p4p3-3-3-3-3-3-3-3------------------------------------------|
E|--------------------------------------------------------------------------------| 

G|--------------------------------------------------------------------------------|
D|---------------------------------------3h4h5-5-5-5-5-5-5-5----------------------|
A|-3h4h5-5-5-5-5-5-5-5p4p3-3-3-3-3-3-3-3----------------------------------12\-----|
E|--------------------------------------------------------------------------------| 

G|--------------------------------------------------------------------------------|
D|---------------------------------------3h4h5-5-5-5-5-5-5-5-7p6p5-5-5-5-5-5------|
A|-3h4h5-5-5-5-5-5-5-5p4p3-3-3-3-3-3-3-3--------------------------------------7---|
E|--------------------------------------------------------------------------------| 

G|--------------------------------------------------------------------------------|
D|---------------------------------------3h4h5-5-5-5-5-5-5-5----------------------|
A|-3h4h5-5-5-5-5-5-5-5p4p3-3-3-3-3-3-3-3-------------------------------------12\--|
E|--------------------------------------------------------------------------------| 

Chorus
G|----------------|----------------|-------5------5------------------------|
D|-------7--------|-------7--------|----7-----5h7----7\\------//7p5-7p5-7--|
A|-5--8-----7h8-7-|-5--8-----7h8-7-|-8-------------------------------------|
E|----------------|----------------|---------------------------------------| x3

Verse
G|--------------------------------------------------------------------------------|
D|---------------------------------------3h4h5-5-5-5-5-5-5-5-7p6p5-5-5-5-5-5------|
A|-3h4h5-5-5-5-5-5-5-5p4p3-3-3-3-3-3-3-3--------------------------------------7\--|
E|--------------------------------------------------------------------------------| x2

G|--------------------------------------------------------------------------------|
D|---------------------------------------3h4h5-5-5-5-5-5-5-5----------------------|
A|-3h4h5-5-5-5-5-5-5-5p4p3-3-3-3-3-3-3-3---------------------------------7-7-7----|
E|--------------------------------------------------------------------------------| 

G|--------------------------------------------------------------------------------|
D|---------------------------------------3h4h5-5-5-5-5-5-5-5----------------------|
A|-3h4h5-5-5-5-5-5-5-5p4p3-3-3-3-3-3-3-3------------------------------------------|
E|--------------------------------------------------------------------------------| 

Chorus
G|----------------|----------------|-------5------5------------------------|
D|-------7--------|-------7--------|----7-----5h7----7\\------//7p5-7p5-7--|
A|-5--8-----7h8-7-|-5--8-----7h8-7-|-8-------------------------------------|
E|----------------|----------------|---------------------------------------|

Bridge
G|-------------------------|------------------------|-------------------------|
D|-------------------------|------------------------|-------------------------|
A|-3--3--3--3--3--3--3--3--|------------------------|555555555\\\\\\----------|
E|-------------------------|-3--3--3--3--3--3--3--3-|-------------------------|

G|--------------------|
D|--------------------|
A|-5\\\\\-------------|
E|--------------------|x3

G|-7-5---------------|----------------------|
D|-------7-5---------|----------------------|
A|------------8--5\\-|----------------------|
E|-------------------|----------------------|

Rave!!!X2
G|-----------------------------------|-----------------|------------------|
D|-----------------------------------|-----------------|-5h7-5h7-5h7-7-777|
A|3h5-3h5-3h5-5-555-3h5-3h5-3h5-5-555|7h8-7h8-7h8-8-888|------------------|
E|-----------------------------------|-----------------|------------------| 

G|---------------------------------|
D|-7h8-7h8-7h8-7h8-7h8-7h8-7h8-7h8-|
A|---------------------------------|
E|---------------------------------|

G|-----------------------------------|----------------|-----------------|
D|-----------------------------------|----------------|-5-5-5-5-5-55-555|
A|3h5-3h5-3h5-5-555-3h5-3h5-3h5-5-555|8-8-8-8-8-88-888|-----------------|
E|-----------------------------------|----------------|-----------------|
End
G|------------------|
D|------------------|
A|-55-3-555-3-55\\\-|
E|------------------|

            
            
Suggest correction
Creating personal tab
Creating personal tab
You can edit any tab online and save it as your Personal.

You can edit, replace or remove any tab part or add personal notes – all changes will be seen only by you.

Personal tabs can be accessed anytime from any device, even offline.
Learn more »
comments
print report bad tab
3 comments total.
0 reply
ThexLeopard 10 Jul 20, 2009 04:41 AM

for the verse its not a long slide its hammer ons and pull offs like this.

G|----------------------------------------------------------------------------------|
D|---------------------------------------3h4h5-5-5-5-5-5-5-5-7p6p5-5-5-5-5-5-5-5----|
A|-3h4h5-5-5-5-5-5-5-5p4p3-3-3-3-3-3-3-3--------------------------------------------|
E|----------------------------------------------------------------------------------|

0 reply
DomStables 294 Aug 04, 2009 02:20 AM

thanks :) ill put it in now, it certainly explains the "long slide" i was on about. thankyou :)

0 reply
DomStables 294 Aug 05, 2009 01:17 AM

there, its sorted. i also added some pulls on the end of the chorus riff, im pretty sure there was more than just 7's. cba to perfect all the verse riffs though, some of them end in 7th on the A and some dont.. thanks for your help again!

guest
You may want to rate the tab now too:
select rating
Wanna post a correction for this tab? Suggest correction